Song name
# A B C D E F G H I J K L M N O P Q R S T U V W X Y Z

All Time Low - Toxic Valentine tab

Hope this works out right. Just comment if you think there's something wrong.

*Drop D*

Intro
e|-------8--------------|    x3
b|--10-----------10-----|
g|-----9------9------9--|
d|----------------------|
a|----------------------|
d|----------------------|

and then
e|----7--5--7--8--7--5--|
b|----------------------|
g|----------------------|
d|----------------------|
a|----------------------|
d|----------------------|

Verse 1 and 2
e|-----------------------------------|
b|-----------------------------------|
g|-----------------------------------|
d|---0~---00-3~--33-0~--00-3~--55-7--|
a|---0~---00-3~--33-0~--00-3~--55-7--|
d|---0~---00-3~--33-0~--00-3~--55-7--|

Pre-chorus
e|----------------------------|
b|----------------------------|
g|----------------------------|
d|--3~---5555555555555--------|
a|--3~---5555555555555--------|
d|--3~---5555555555555--------|

Chorus
e|---------------------------------------------------|(x2)
b|---------------------------------------------------|
g|---------------------------------------------------|
d|--77--3--5~------55--7--7~--------3---------5------|
a|--77--3--5~------55--7--7~--------3(x8)-----5(x8)--|
d|--77--3--5~------55--7--7~--------3---------5------|

*Repeat intro*

*Verse 2*

*Chorus*

Bridge
e|-------------------------------------------------------|
b|--------------------(x2)-------------------------------|
g|-------------------------------------------------------|
d|--3~--5~--7~--10~-----------3~------555555555555-------|
a|--3~--5~--7~--10~-----------3~------555555555555-------|
d|--3~--5~--7~--10~-----------3~------555555555555-------|

*Chorus*

End with
e|------------|
b|------------|
g|------------|
d|---77-7~----|
a|---77-7~----|
d|---77-7~----|

Tap to rate this tab
 
# A B C D E F G H I J K L M N O P Q R S T U V W X Y Z