Song name
# A B C D E F G H I J K L M N O P Q R S T U V W X Y Z

All Time Low - A Party Song tab

Artist: All Time Low
Song: A Party Song (The Walk of Shame)
Tuning: Drop C Tuning

This is for the rhythm guitar ( I think Alex Gaskarth does this)

|-----------------------------------------------------------------|
|-----------------------------------------------------------------|
|---------5-5-----3-3-----3-3-------------5-5-----3-3-----3-3-----|
|-3-3-----5-5-----3-3-----3-3-----3-3-----5-5-----3-3-----3-3-----|
|-3-3-----3-3-----1-1-----1-1-----3-3-----3-3-----1-1-----1-1-----|
|-3-3-----------------------------3-3-----------------------------|

|-----------------------------------------------------------------|
|-----------------------------------------------------------------|
|---------5-5-----3-3-----3-3-------------5-5-----3-3-------------|
|-3-3-----5-5-----3-3-----3-3-----3-3-----5-5-----3-3-------------|
|-3-3-----3-3-----1-1-----1-1-----3-3-----3-3-----1-1-------------|
|-3-3-----------------------------3-3-----------------------------|

       (Repeat 3 times)
|-----------------------------------------------------------------|
|-----------------------------------------------------------------|
|----------------------------5-3----------------------------------|
|-3-3--3-33-33-3--333-3-3-3--5-3----------------------------------|
|-3-3--3-33-33-3--333-3-3-3--3-1----------------------------------|
|-3-3--3-33-33-3--333-3-3-3---------------------------------------|

|----------------------------------------------------------|
|----------------------------------------------------------|
|-3-3-3-3-3-3-3--5-5-5-5-5-5-5-5---------------------------|
|-3-3-3-3-3-3-3--5-5-5-5-5-5-5-5---------------------------|
|-1-1-1-1-1-1-1--3-3-3-3-3-3-3-3---------------------------|
|----------------------------------------------------------|

|-----------------------------------------------------------------|
|-----------------------------------------------------------------|
|---------5-5-----3-3-----3-3-------------5-5-----3-3-----3-3-----|
|-3-3-----5-5-----3-3-----3-3-----3-3-----5-5-----3-3-----3-3-----|
|-3-3-----3-3-----1-1-----1-1-----3-3-----3-3-----1-1-----1-1-----|
|-3-3-----------------------------3-3-----------------------------|


       (Repeat 3 times)
|-----------------------------------------------------------------|
|-----------------------------------------------------------------|
|----------------------------5-3----------------------------------|
|-3-3--3-33-33-3--333-3-3-3--5-3----------------------------------|
|-3-3--3-33-33-3--333-3-3-3--3-1----------------------------------|
|-3-3--3-33-33-3--333-3-3-3---------------------------------------|

|----------------------------------------------------------|
|----------------------------------------------------------|
|-3-3-3-3-3-3-3--5-5-5-5-5-5-5-5---------------------------|
|-3-3-3-3-3-3-3--5-5-5-5-5-5-5-5---------------------------|
|-1-1-1-1-1-1-1--3-3-3-3-3-3-3-3---------------------------|
|----------------------------------------------------------|
Tap to rate this tab
# A B C D E F G H I J K L M N O P Q R S T U V W X Y Z