Song name
# A B C D E F G H I J K L M N O P Q R S T U V W X Y Z

All Time Low - Six Feet Under The Stars Acoustic tab

I know the rhythm isn't right everywhere but I hope this tab helps u playing the 
song. I'll record the song soon and upload it on youtube.
~ = let it ring
x = mute

   Time to lay..    Fingerprints sold me..
D#|------------------------|
A#|------------------------|
F#|----9~--------------8~--|
C#|--9-9~------------9-9~--|
G#|-7--7~-----------7--7~--|
C#|------------------------|

   But our footprints washed..
D#|---------------------|
A#|---------------------|
F#|-99-2222222222222222-| strum	2
C#|-99-2222222222222222-|	      2
G#|-77-0000000000000000-|	      0
C#|---------------------|

    A little time.. We can kick..
D#|-----------------------|
A#|-----------------------|
F#|----9~--------------8~-|
C#|--9-9~------------9-9~-|
G#|-7--7~-----------7--7~-|
C#|-----------------------|

   About the world..
D#|---------------------|
A#|---------------------|
F#|-88-2222222222222222-| strum 2
C#|-99-2222222222222222-|	      2
G#|-77-0000000000000000-|	      0
C#|---------------------|

    Pass me another..
D#|------------|
A#|------------|
F#|-6~--666-4~-|
C#|-6~--666-4~-|
G#|-4~--444-2~-|
C#|------------|

    Meet me on Thames street..
D#|---------------------------------------------|
A#|---------------------------------------------|
F#|-----------------------2-2-222-22-2-2-222-22-|
C#|-2-2-222-22-2-2-222-22-2-2-222-22-2-2-222-22-|
G#|-2-2-222-22-2-2-222-22-0-0-000-00-0-0-000-00-|
C#|-2-2-222-22-2-2-222-22-----------------------|

    In the cold..
D#|-------------------------------------|
A#|-------------------------------------|
F#|-444-4444-666-6666-222-2222-222-2222-|
C#|-444-4444-666-6666-222-2222-222-2222-|
G#|-222-2222-444-4444-000-0000-000-0000-|
C#|-------------------------------------|

    We'll hit..
D#|---------------------------------------------|
A#|---------------------------------------------|
F#|-----------------------2-2-222-22-2-2-222-22-|
C#|-2-2-222-22-2-2-222-22-2-2-222-22-2-2-222-22-|
G#|-2-2-222-22-2-2-222-22-0-0-000-00-0-0-000-00-|
C#|-2-2-222-22-2-2-222-22-----------------------|

    I've been digging myself...    Six feet under the stars
D#|------------------------------|
A#|------------------------------|
F#|-444-4444-666-6666-222-2222-2-|
C#|-444-4444-666-6666-222-2222-2-|
G#|-222-2222-444-4444-000-0000-0-|
C#|------------------------------|

D#|------------------------|
A#|------------------------|
F#|----9~--------------8~--|
C#|--9-9~------------9-9~--|
G#|-7--7~-----------7--7~--|
C#|------------------------|

        I should have known better..
D#|-----------------------------------------------------------------|
A#|-----------------------------------------------------------------|
F#|-888----------------2-22-2-2-22222----------------2-22-2-2-22222-|
C#|-999-2-22-2-2-22222-2-22-2-2-22222-2-22-2-2-22222-2-22-2-2-22222-|
G#|-777-2-22-2-2-22222-0-00-0-0-00000-2-22-2-2-22222-0-00-0-0-00000-|
C#|-----2-22-2-2-22222----------------2-22-2-2-22222----------------|

    I'm gonna roll the dice..
D#|-----------------------|
A#|-----------------------|
F#|-6~-666-4~-444-2~-2222-|
C#|-6~-666-4~-444-2~-2222-|
G#|-4~-444-2~-222-0~-0000-|
C#|-----------------------|

    Thames street..
D#|---------------------------------------------|
A#|---------------------------------------------|
F#|-----------------------2-2-222-22-2-2-222-22-|
C#|-2-2-222-22-2-2-222-22-2-2-222-22-2-2-222-22-|
G#|-2-2-222-22-2-2-222-22-0-0-000-00-0-0-000-00-|
C#|-2-2-222-22-2-2-222-22-----------------------|

    In the cold..
D#|-------------------------------------|
A#|-------------------------------------|
F#|-444-4444-666-6666-222-2222-222-2222-|
C#|-444-4444-666-6666-222-2222-222-2222-|
G#|-222-2222-444-4444-000-0000-000-0000-|
C#|-------------------------------------|

    We'll hit..
D#|---------------------------------------------|
A#|---------------------------------------------|
F#|-----------------------2-2-222-22-2-2-222-22-|
C#|-2-2-222-22-2-2-222-22-2-2-222-22-2-2-222-22-|
G#|-2-2-222-22-2-2-222-22-0-0-000-00-0-0-000-00-|
C#|-2-2-222-22-2-2-222-22-----------------------|

    I've been digging myself..     Six feet under the stars
D#|------------------------------|
A#|------------------------------|
F#|-444-4444-666-6666-222-2222-2-|
C#|-444-4444-666-6666-222-2222-2-|
G#|-222-2222-444-4444-000-0000-0-|
C#|------------------------------|

       I'ts time to lay claim..
D#|---------------------------------------------------------------------|
A#|---------------------------------------------------------------------|
F#|-6666666666666666-2222222222222222------------------4444444444444444-|
C#|-6666666666666666-2222222222222222-2222222222222222-4444444444444444-|
G#|-4444444444444444-0000000000000000-2222222222222222-2222222222222222-|
C#|-----------------------------------2222222222222222------------------|

       Overdressed and underage..
D#|-----------------------------------------------------------------------------------------|
A#|-----------------------------------------------------------------------------------------|
F#|-66-x-66666-x-6-x-6666--2-x-22222-x-2-x-2222------------------------4-x-44444-x-4-x-4444-|
C#|-66-x-66666-x-6-x-6666--2-x-22222-x-2-x-2222--2-x-22222-x-2-x-2222--4-x-44444-x-4-x-4444-|
G#|-44-x-44444-x-4-x-4444--0-x-00000-x-0-x-0000--2-x-22222-x-2-x-2222--2-x-22222-x-2-x-2222-|
C#|----------------------------------------------2-x-22222-x-2-x-2222-----------------------|

    Meet me on Thames street..		         We'll hit
D#|-----------------------------------------|
A#|-----------------------------------------|
F#|----2~-2~-22--4-4-44--6-6-66--2-2~---222-|
C#|-2~-2~-2~-22--4-4-44--6-6-66--2-2~---222-|
G#|-2~-0~-0~-00--2-2-22--4-4-44--0-0~---000-|
C#|-2~--------------------------------------|

    South broadway..
D#|---------------------------------------------|
A#|---------------------------------------------|
F#|-----------------------2-2-222-22-2-2-222-22-|
C#|-2-2-222-22-2-2-222-22-2-2-222-22-2-2-222-22-|
G#|-2-2-222-22-2-2-222-22-0-0-000-00-0-0-000-00-|
C#|-2-2-222-22-2-2-222-22-----------------------|

        I've been digging myself..
D#|-------------------------------------|
A#|-------------------------------------|
F#|-444-4444-666-6666-222-2222-222-2222-|
C#|-444-4444-666-6666-222-2222-222-2222-|
G#|-222-2222-444-4444-000-0000-000-0000-|
C#|-------------------------------------|

    whoa oh..
D#|---------------------------------------------|
A#|---------------------------------------------|
F#|-----------------------2-2-222-22-2-2-222-22-|
C#|-2-2-222-22-2-2-222-22-2-2-222-22-2-2-222-22-|
G#|-2-2-222-22-2-2-222-22-0-0-000-00-0-0-000-00-|
C#|-2-2-222-22-2-2-222-22-----------------------|

    whoa oh..
D#|---------------------------|
A#|---------------------------|
F#|-444-4444-666-6666-222-222-|
C#|-444-4444-666-6666-222-222-|
G#|-222-2222-444-4444-000-000-|
C#|---------------------------|

    Six feet under the stars
D#|-------------|
A#|-------------|
F#|-2~--4~------|
C#|-2~--4~--2~--|
G#|-0~--2~--2~--|
C#|---------2~--|
Tap to rate this tab
# A B C D E F G H I J K L M N O P Q R S T U V W X Y Z