Song name
# A B C D E F G H I J K L M N O P Q R S T U V W X Y Z

All Time Low - Weightless Acoustic tab

This is my first tab... it's the acoustic version and there are some mistakes but it's close.

http://www.youtube.com/watch?v=1pCPt7H7R54

Please listen to the song for rhythm and time as I didn't really incorporate that into the tab.


The tuning is DADGAE

Verse:

Manage me, I'm a mess...
E|-------------------------|
A|-------------------------|
G|---4----6----11----4-----|
D|-------------------------|
A|---5----7----12----5-----|
D|---5----7----12----5-----|x3

E|-------------------------|
A|-------------------------|
G|---4----6----11----11----|
D|-------------------0-----|
A|---5----7----12----0-----|
D|---5----7----12----0-----|x1

Chorus

Maybe it's not my weekend...
E|------------------------------------------------------|
A|------------------------------------------------------|
G|---7----7----9-----11-14-6----7----7----9-------------|
D|---5----0----7-----9  -12-4----5----0----7------------|
A|---5----0----7-----9  -12-4----5----0----7------------|
D|---5----0----7-----9  -12-4----5----0----7------------|

this is my reaction...
E|-------------------------------|
A|-------------------------------|
G|-------6---4-------4---6---9---|
D|---9-----------0-----------0---|
A|---9---7---5---0---5---7---0---|
D|---9---7---5---0---5---7---0---|

Verse:

Make believe that I impress..
E|-------------------------|
A|-------------------------|
G|---4----6----11----4-----|
D|-------------------------|
A|---5----7----12----5-----|
D|---5----7----12----5-----|x3

E|-------------------------|
A|-------------------------|
G|---4----6----11----11----|
D|-------------------0-----|
A|---5----7----12----0-----|
D|---5----7----12----0-----|x1

This is my first tab... it's not a 100% but it's close I think.

The tuning is DADGAE

Verse:

Manage me, I'm a mess...
E|-------------------------|
A|-------------------------|
G|---4----6----11----4-----|
D|-------------------------|
A|---5----7----12----5-----|
D|---5----7----12----5-----|x3

E|-------------------------|
A|-------------------------|
G|---4----6----11----11----|
D|-------------------0-----|
A|---5----7----12----0-----|
D|---5----7----12----0-----|x1

Chorus

Maybe it's not my weekend...
E|------------------------------------------------------|
A|------------------------------------------------------|
G|---7----7----9-----11-14-6----7----7----9-------------|
D|---5----0----7-----9  -12-4----5----0----7------------|
A|---5----0----7-----9  -12-4----5----0----7------------|
D|---5----0----7-----9  -12-4----5----0----7------------|

this is my reaction...
E|-------------------------------|
A|-------------------------------|
G|-------6---4---2---7---9---9---|
D|---9-----------0---5---7---0---|
A|---9---7---5---0---5---7---0---|
D|---9---7---5---0---5---7---0---|

Bridge

This could be all I've waited for...
E|-----------------------------------------|
A|-----------------------------------------|
G|---4----7----7---------4----7----9-------|
D|---2----5----4---------2----5----7-------|
A|---2----5----5---------2----5----7-------|
D|---2----5----0---------2----5----7-------|

Maybe it's not my weekend but it's gonna be  my year
And I've been going crazy I'm stuck in here...
(strum once like in song)
E|-----------------------|
A|-----------------------|
G|---11---4----7----7----|
D|---0----2----5----4----|
A|---0----2----5----5----|
D|---0----2----5----0----|

Chorus

Maybe it's not my weekend...
E|------------------------------------------------------|
A|------------------------------------------------------|
G|---7----7----9-----11-14-6----7----7----9-------------|
D|---5----0----7-----9  -12-4----5----0----7------------|
A|---5----0----7-----9  -12-4----5----0----7------------|
D|---5----0----7-----9  -12-4----5----0----7------------|

this is my reaction...
E|-------------------------------|
A|-------------------------------|
G|-------6---4---2---7---9---9---|
D|---9-----------0---5---7---0---|
A|---9---7---5---0---5---7---0---|
D|---9---7---5---0---5---7---0---|
Tap to rate this tab
# A B C D E F G H I J K L M N O P Q R S T U V W X Y Z