Song name
# A B C D E F G H I J K L M N O P Q R S T U V W X Y Z

All Time Low - Hit The Lights tab

Title: Hit the Lights
Artist: All Time Low
Album: The Three Words To Remember In Dealing With The End
Tabbed by: Phloprox
Tuning: E A D G B E

I couldn't find a complete and/or correct Hit the Lights tab on UG, so, here it is [I 
it by ear]. :D

It's my first tab, so be as critical as possible. Comment if you have any corrections 
is a part in the chorus that I
think I hear, but it might just be in my head, and therefore will not put up until I can 
 assured).
And, sorry it's a long tab :P

Note: I did NOT include palm muting, sliding, or strumming specifities. You might not 
a good enough ear to learn songs
by yourself by ear, but you're not deaf and can sure as hell hear when to slide, strum, 
palm mute.

                    Intro
|-------------------------------------------------------|
|-------------------------------------------------------|
|------------------------8h9p8--------------------------|
|----9---9-------9---9----------------------------------|
|7-7---------7-7----------------------------------------|
|-------------------------------------------------------|
|                                                       | 2x
|-------------------------------------------------------|
|-------------------------------------------------------|
|-------------------------------------------------------|
|-------------------------------------------------------|
|-------------------------------------------------------|
|-------------------------------------------------------|

|-------------------------------------------------------|
|-------------------------------------------------------|
|------------------------8h9p8--------------------------|
|----9---9-------9---9----------------------------------|
|7-7---------7-7----------------------------------------|
|-------------------------------------------------------|
|                                                       |
|-------------------------------------------------------|
|-------------------------------------------------------|
|-------------------------------------------------------|
|7------------------------------------------------------|
|7------------------------------------------------------|
|5------------------------------------------------------|

|-------------------------------------------------------|
|-------------------------------------------------------|
|------------------------8h9p8--------------------------|
|----9---9-------9---9----------------------------------|
|7-7---------7-7----------------------------------------|
|-------------------------------------------------------|
|                                                       |
|-------------------------------------------------------|
|-------------------------------------------------------|
|-------------------------------------------------------|
|-------------------------------------------------------|
|-------------------------------------------------------|
|-------------------------------------------------------|

|-------------------------------------------------------|
|-------------------------------------------------------|
|------------------------8h9p8--------------------------|
|----9---9-------9---9----------------------------------|
|7-7---------7-7----------------------------------------|
|-------------------------------------------------------|
|                                                       |
|-------------------------------------------------------|
|-------------------------------------------------------|
|-------------------------------------------------------|
|2------------------------------------------------------|
|2------------------------------------------------------|
|0------------------------------------------------------|


|-------------------------------------------------------|
|-------------------------------------------------------|
|------------------------8h9p8--------------------------|
|----9---9-------9---9----------------------------------|
|7-7---------7-7----------------------------------------|
|-------------------------------------------------------|
|                                                       |
|-------------------------------------------------------|
|-------------------------------------------------------|
|-------------------------------------------------------|
|-------------------------------------------------------|
|-------------------------------------------------------|
|-------------------------------------------------------|

|-------------------------------------------------------|
|-------------------------------------------------------|
|------------------------8h9p8--------------------------|
|----9---9-------9---9----------------------------------|
|7-7---------7-7----------------------------------------|
|-------------------------------------------------------|
|                                                       |
|-------------------------------------------------------|
|-------------------------------------------------------|
|-------------------------------------------------------|
|7------------------------------------------------------|
|7------------------------------------------------------|
|5------------------------------------------------------|

|-------------------------------------------------------|
|-------------------------------------------------------|
|------------------------8h9p8--------------------------|
|----9---9-------9---9----------------------------------|
|7-7---------7-7----------------------------------------|
|-------------------------------------------------------|
|                                                       |
|-------------------------------------------------------|
|-------------------------------------------------------|
|-------------------------------------------------------|
|-------------------------------------------------------|
|-------------------------------------------------------|
|-------------------------------------------------------|

|-------------------------------------------------------|
|-------------------------------------------------------|
|9-----11-----13-----14---------------------------------|
|x-----x------x------x----------------------------------|
|7-----9------11-----12---------------------------------|
|-------------------------------------------------------|
|                                                       |
|-------------------------------------------------------|
|-------------------------------------------------------|
|9-----8------9------11---------------------------------|
|x-----x------x------x----------------------------------|
|7-----6------7------9----------------------------------|
|-------------------------------------------------------|
        Figure out the strumming yourself :P
|-------------------------------------------------------|
|-------------------------------------------------------|
|-------------------------------------------------------|
|-------------------------------------------------------|
|-------------------------------------------------------|
|-------------------------------------------------------|
|                                                       |
|-------------------------------------------------------|
|-------------------------------------------------------|
|-------------------------------------------------------|
|9------------------------------------------------------|
|9------------------------------------------------------|
|7------------------------------------------------------|

|-------------------------------------------------------|
|-------------------------------------------------------|
|----9-------9-------8-------8h9------------------------|
|9-9-----9-9-----9-9-----9-9----------------------------|
|-------------------------------------------------------|
|-------------------------------------------------------|
|                                                       |
|-------------------------------------------------------|
|-------------------------------------------------------|
|-------------------------------------------------------|
|11-----------------------------------------------------|
|11-----------------------------------------------------|
|9------------------------------------------------------|

|-------------------------------------------------------|
|-------------------------------------------------------|
|----9-------9-------11------11-------------------------|
|9-9-----9-9-----9-9-----9-9----------------------------|
|-------------------------------------------------------|
|-------------------------------------------------------|
|                                                       |
|-------------------------------------------------------|
|-------------------------------------------------------|
|-------------------------------------------------------|
|7------------------------------------------------------|
|7------------------------------------------------------|
|5------------------------------------------------------|

|-------------------------------------------------------|
|-------------------------------------------------------|
|9-----11-----13-----14---------------------------------|
|x-----x------x------x----------------------------------|
|7-----9------11-----12---------------------------------|
|-------------------------------------------------------|
|                                                       |
|-------------------------------------------------------|
|-------------------------------------------------------|
|9-----8------9------11---------------------------------|
|x-----x------x------x----------------------------------|
|7-----6------7------9----------------------------------|
|-------------------------------------------------------|

|-------------------------------------------------------|
|-------------------------------------------------------|
|-------------------------------------------------------|
|-------------------------------------------------------|
|-------------------------------------------------------|
|-------------------------------------------------------|
|                                                       |
|-------------------------------------------------------|
|-------------------------------------------------------|
|-------------------------------------------------------|
|9------------------------------------------------------|
|9------------------------------------------------------|
|7------------------------------------------------------|

|-------------------------------------------------------|
|-------------------------------------------------------|
|----9-------9-------8-------8h9------------------------|
|9-9-----9-9-----9-9-----9-9----------------------------|
|-------------------------------------------------------|
|-------------------------------------------------------|
|                                                       |
|-------------------------------------------------------|
|-------------------------------------------------------|
|-------------------------------------------------------|
|11-----------------------------------------------------|
|11-----------------------------------------------------|
|9------------------------------------------------------|

|-------------------------------------------------------|
|-------------------------------------------------------|
|9------------------------------------------------------|
|-------------------------------------------------------|
|-------------------------------------------------------|
|-------------------------------------------------------|
|                                                       |
|-------------------------------------------------------|
|-------------------------------------------------------|
|-------------------------------------------------------|
|7~-----------------------------------------------------|
|7~-----------------------------------------------------|
|5~-----------------------------------------------------|

                      Verse 1
|-------------------------------------------------------|
|-------------------------------------------------------|
|----9-------8-------9-------9h11-----------------------|
|9-9-----9-9-----9-9-----9-9----------------------------|
|-------------------------------------------------------|
|-------------------------------------------------------|
|. .     . .    . .     . .                             |
|-------------------------------------------------------|
|-------------------------------------------------------|
|-------------------------------------------------------|
|2------------------------------------------------------|
|2------------------------------------------------------|
|0------------------------------------------------------|

|-------------------------------------------------------|
|-------------------------------------------------------|
|----9-------8-------9-------9h11-----------------------|
|9-9-----9-9-----9-9-----9-9----------------------------|
|-------------------------------------------------------|
|-------------------------------------------------------|
|. .     . .    . .     . .                             |
|-------------------------------------------------------|
|-------------------------------------------------------|
|-------------------------------------------------------|
|11-----------------------------------------------------|
|11-----------------------------------------------------|
|9------------------------------------------------------|

|-------------------------------------------------------|
|-------------------------------------------------------|
|----9-------8-------9-------9h11-----------------------|
|9-9-----9-9-----9-9-----9-9----------------------------|
|-------------------------------------------------------|
|-------------------------------------------------------|
|. .     . .    . .     . .                             |
|-------------------------------------------------------|
|-------------------------------------------------------|
|-------------------------------------------------------|
|9------------------------------------------------------|
|9------------------------------------------------------|
|7------------------------------------------------------|

|-------------------------------------------------------|
|-------------------------------------------------------|
|----9-------8-------9-------9h11-----------------------|
|9-9-----9-9-----9-9-----9-9----------------------------|
|-------------------------------------------------------|
|-------------------------------------------------------|
|. .     . .    . .     . .                             |
|-------------------------------------------------------|
|-------------------------------------------------------|
|-------------------------------------------------------|
|7------------------------------------------------------|
|7------------------------------------------------------|
|5------------------------------------------------------|

|-------------------------------------------------------|
|-------------------------------------------------------|
|----9-------8-------9-------9h11-----------------------|
|9-9-----9-9-----9-9-----9-9----------------------------|
|-------------------------------------------------------|
|-------------------------------------------------------|
|                                                       |
|-------------------------------------------------------|
|----9-------7-------9-------9h10-----------------------|
|-------------------------------------------------------|
|9-9-----9-9-----9-9-----9-9----------------------------|
|-------------------------------------------------------|
|-------------------------------------------------------|
|                                                       |
|-------------------------------------------------------|
|-------------------------------------------------------|
|-------------------------------------------------------|
|2------------------------------------------------------|
|2------------------------------------------------------|
|0------------------------------------------------------|

|-------------------------------------------------------|
|-------------------------------------------------------|
|----9-------8-------9-------9h11-----------------------|
|9-9-----9-9-----9-9-----9-9----------------------------|
|-------------------------------------------------------|
|-------------------------------------------------------|
|                                                       |
|-------------------------------------------------------|
|----9-------7-------9-------9h10-----------------------|
|-------------------------------------------------------|
|9-9-----9-9-----9-9-----9-9----------------------------|
|-------------------------------------------------------|
|-------------------------------------------------------|
|                                                       |
|-------------------------------------------------------|
|-------------------------------------------------------|
|-------------------------------------------------------|
|11-----------------------------------------------------|
|11-----------------------------------------------------|
|9------------------------------------------------------|

|-------------------------------------------------------|
|-------------------------------------------------------|
|----9-------8-------9-------9h11-----------------------|
|9-9-----9-9-----9-9-----9-9----------------------------|
|-------------------------------------------------------|
|-------------------------------------------------------|
|                                                       |
|-------------------------------------------------------|
|----9-------7-------9-------9h10-----------------------|
|-------------------------------------------------------|
|9-9-----9-9-----9-9-----9-9----------------------------|
|-------------------------------------------------------|
|-------------------------------------------------------|
|                                                       |
|-------------------------------------------------------|
|-------------------------------------------------------|
|-------------------------------------------------------|
|9------------------------------------------------------|
|9------------------------------------------------------|
|7------------------------------------------------------|

|-------------------------------------------------------|
|-------------------------------------------------------|
|----9-------8-------9-------9h11-----------------------|
|9-9-----9-9-----9-9-----9-9----------------------------|
|-------------------------------------------------------|
|-------------------------------------------------------|
|                                                       |
|-------------------------------------------------------|
|----9-------7-------9-------9h10-----------------------|
|-------------------------------------------------------|
|9-9-----9-9-----9-9-----9-9----------------------------|
|-------------------------------------------------------|
|-------------------------------------------------------|
|                                                       |
|-------------------------------------------------------|
|-------------------------------------------------------|
|-------------------------------------------------------|
|7------------------------------------------------------|
|7------------------------------------------------------|
|5------------------------------------------------------|
                     Pre-chorus
|-------------------------------------------------------|
|-------------------------------------------------------|
|--------------------8-------9--------------------------|
|--------9----------------------------------------------|
|7-7---7-----7-7---7-----7-7----------------------------|
|-------------------------------------------------------|
|                                                       |
|-------------------------------------------------------|
|-------------------------------------------------------|
|-------------------------------------------------------|
|2------------------------------------------------------|
|2------------------------------------------------------|
|0------------------------------------------------------|

|-------------------------------------------------------|
|-------------------------------------------------------|
|--------9-----------8-------9--------------------------|
|-------------------------------------------------------|
|7-7---7-----7-7---7-----7-7----------------------------|
|-------------------------------------------------------|
|                                                       |
|-------------------------------------------------------|
|-------------------------------------------------------|
|-------------------------------------------------------|
|-------------------------------------------------------|
|-------------------------------------------------------|
|-------------------------------------------------------|

|-------------------------------------------------------|
|-------------------------------------------------------|
|--------9-----------8-------9--------------------------|
|-------------------------------------------------------|
|7-7---7-----7-7---7-----7-7----------------------------|
|-------------------------------------------------------|
|                                                       |
|-------------------------------------------------------|
|-------------------------------------------------------|
|-------------------------------------------------------|
|7------------------------------------------------------|
|7------------------------------------------------------|
|5------------------------------------------------------|

|-------------------------------------------------------|
|-------------------------------------------------------|
|--------9-----------8-------9--------------------------|
|-------------------------------------------------------|
|7-7---7-----7-7---7-----7-7----------------------------|
|-------------------------------------------------------|
|                                                       |
|-------------------------------------------------------|
|-------------------------------------------------------|
|-------------------------------------------------------|
|9------------------------------------------------------|
|9------------------------------------------------------|
|7------------------------------------------------------|

|-------------------------------------------------------|
|-------------------------------------------------------|
|--------9-----------8-------9--------------------------|
|-------------------------------------------------------|
|7-7---7-----7-7---7-----7-7----------------------------|
|-------------------------------------------------------|
|                                                       |
|-------------------------------------------------------|
|-------------------------------------------------------|
|-------------------------------------------------------|
|11-----------------------------------------------------|
|11-----------------------------------------------------|
|9------------------------------------------------------|

|-------------------------------------------------------|
|-------------------------------------------------------|
|--------9-----------8-------9--------------------------|
|-------------------------------------------------------|
|7-7---7-----7-7---7-----7-7----------------------------|
|-------------------------------------------------------|
|                                                       |
|-------------------------------------------------------|
|-------------------------------------------------------|
|-------------------------------------------------------|
|9------------------------------------------------------|
|9------------------------------------------------------|
|7------------------------------------------------------|

|-------------------------------------------------------|
|-------------------------------------------------------|
|--------9-----------8-------9--------------------------|
|-------------------------------------------------------|
|7-7---7-----7-7---7-----7-7----------------------------|
|-------------------------------------------------------|
|                                                       |
|-------------------------------------------------------|
|-------------------------------------------------------|
|-------------------------------------------------------|
|7------------------------------------------------------|
|7------------------------------------------------------|
|5------------------------------------------------------|

|-------------------------------------------------------|
|-------------------------------------------------------|
|--------9-----------8-------9--------------------------|
|-------------------------------------------------------|
|7-7---7-----7-7---7-----7-7----------------------------|
|-------------------------------------------------------|
|                                                       |
|-------------------------------------------------------|
|-------------------------------------------------------|
|-------------------------------------------------------|
|9------------------------------------------------------|
|9------------------------------------------------------|
|7------------------------------------------------------|
                      "Innocent"
|-------------------------------------------------------|
|-------------------------------------------------------|
|-------------------------------------------------------|
|-------------------------------------------------------|
|-------------------------------------------------------|
|-------------------------------------------------------|
|                                                       |
|-------------------------------------------------------|
|-------------------------------------------------------|
|-------------------------------------------------------|
|11-----------------------------------------------------|
|11-----------------------------------------------------|
|9------------------------------------------------------|
                    Chorus
|-------------------------------------------------------|
|-------------------------------------------------------|
|----2---4-6--{2-4}-------------------------------------|
|2---x---x-x--{x-x}2nd-Time-Only------------------------|
|2---0---2-4--{0-2}-------------------------------------|
|0------------------------------------------------------|
|                                                       | 2x
|-------------------------------------------------------|
|-------------------------------------------------------|
|-------------------------------------------------------|
|2---7---9-11--7-9--------------------------------------|
|2---7---9-11--7-9--------------------------------------|
|0---5---7-9---5-7--------------------------------------|

                   Bridge 1
|-------------------------------------------------------|
|-------------------------------------------------------|
|9-----11-----13-----14---------------------------------|
|x-----x------x------x----------------------------------|
|7-----9------11-----12---------------------------------|
|-------------------------------------------------------|
|                                                       |
|-------------------------------------------------------|
|-------------------------------------------------------|
|9-----8------9------11---------------------------------|
|x-----x------x------x----------------------------------|
|7-----6------7------9----------------------------------|
|-------------------------------------------------------|

|-------------------------------------------------------|
|-------------------------------------------------------|
|-------------------------------------------------------|
|-------------------------------------------------------|
|-------------------------------------------------------|
|-------------------------------------------------------|
|                                                       |
|-------------------------------------------------------|
|-------------------------------------------------------|
|-------------------------------------------------------|
|9------------------------------------------------------|
|9------------------------------------------------------|
|7------------------------------------------------------|

|-------------------------------------------------------|
|-------------------------------------------------------|
|----9-------9-------8-------8h9------------------------|
|9-9-----9-9-----9-9-----9-9----------------------------|
|-------------------------------------------------------|
|-------------------------------------------------------|
|                                                       |
|-------------------------------------------------------|
|-------------------------------------------------------|
|-------------------------------------------------------|
|11-----------------------------------------------------|
|11-----------------------------------------------------|
|9------------------------------------------------------|

|-------------------------------------------------------|
|-------------------------------------------------------|
|----9-------9-------11------11-------------------------|
|9-9-----9-9-----9-9-----9-9----------------------------|
|-------------------------------------------------------|
|-------------------------------------------------------|
|                                                       |
|-------------------------------------------------------|
|-------------------------------------------------------|
|-------------------------------------------------------|
|7------------------------------------------------------|
|7------------------------------------------------------|
|5------------------------------------------------------|

|-------------------------------------------------------|
|-------------------------------------------------------|
|9-----11-----13-----14---------------------------------|
|x-----x------x------x----------------------------------|
|7-----9------11-----12---------------------------------|
|-------------------------------------------------------|
|                                                       |
|-------------------------------------------------------|
|-------------------------------------------------------|
|9-----8------9------11---------------------------------|
|x-----x------x------x----------------------------------|
|7-----6------7------9----------------------------------|
|-------------------------------------------------------|

|-------------------------------------------------------|
|-------------------------------------------------------|
|-------------------------------------------------------|
|-------------------------------------------------------|
|-------------------------------------------------------|
|-------------------------------------------------------|
|                                                       |
|-------------------------------------------------------|
|-------------------------------------------------------|
|-------------------------------------------------------|
|9------------------------------------------------------|
|9------------------------------------------------------|
|7------------------------------------------------------|

|-------------------------------------------------------|
|-------------------------------------------------------|
|----9-------9-------8-------8h9------------------------|
|9-9-----9-9-----9-9-----9-9----------------------------|
|-------------------------------------------------------|
|-------------------------------------------------------|
|                                                       |
|-------------------------------------------------------|
|-------------------------------------------------------|
|-------------------------------------------------------|
|11-----------------------------------------------------|
|11-----------------------------------------------------|
|9------------------------------------------------------|

|-------------------------------------------------------|
|-------------------------------------------------------|
|9------------------------------------------------------|
|-------------------------------------------------------|
|-------------------------------------------------------|
|-------------------------------------------------------|
|                                                       |
|-------------------------------------------------------|
|-------------------------------------------------------|
|-------------------------------------------------------|
|7~-----------------------------------------------------|
|7~-----------------------------------------------------|
|5~-----------------------------------------------------|

                      Verse 2
|-------------------------------------------------------|
|-------------------------------------------------------|
|----9-------8-------9-------9h11-----------------------|
|9-9-----9-9-----9-9-----9-9----------------------------|
|-------------------------------------------------------|
|-------------------------------------------------------|
|. .     . .    . .     . .                             |
|-------------------------------------------------------|
|-------------------------------------------------------|
|-------------------------------------------------------|
|2------------------------------------------------------|
|2------------------------------------------------------|
|0------------------------------------------------------|

|-------------------------------------------------------|
|-------------------------------------------------------|
|----9-------8-------9-------9h11-----------------------|
|9-9-----9-9-----9-9-----9-9----------------------------|
|-------------------------------------------------------|
|-------------------------------------------------------|
|. .     . .    . .     . .                             |
|-------------------------------------------------------|
|-------------------------------------------------------|
|-------------------------------------------------------|
|11-----------------------------------------------------|
|11-----------------------------------------------------|
|9------------------------------------------------------|

|-------------------------------------------------------|
|-------------------------------------------------------|
|----9-------8-------9-------9h11-----------------------|
|9-9-----9-9-----9-9-----9-9----------------------------|
|-------------------------------------------------------|
|-------------------------------------------------------|
|. .     . .    . .     . .                             |
|-------------------------------------------------------|
|-------------------------------------------------------|
|-------------------------------------------------------|
|9------------------------------------------------------|
|9------------------------------------------------------|
|7------------------------------------------------------|

|-------------------------------------------------------|
|-------------------------------------------------------|
|----9-------8-------9-------9h11-----------------------|
|9-9-----9-9-----9-9-----9-9----------------------------|
|-------------------------------------------------------|
|-------------------------------------------------------|
|. .     . .    . .     . .                             |
|-------------------------------------------------------|
|-------------------------------------------------------|
|-------------------------------------------------------|
|7------------------------------------------------------|
|7------------------------------------------------------|
|5------------------------------------------------------|

|-------------------------------------------------------|
|-------------------------------------------------------|
|----9-------8-------9-------9h11-----------------------|
|9-9-----9-9-----9-9-----9-9----------------------------|
|-------------------------------------------------------|
|-------------------------------------------------------|
|                                                       |
|-------------------------------------------------------|
|----9-------7-------9-------9h10-----------------------|
|-------------------------------------------------------|
|9-9-----9-9-----9-9-----9-9----------------------------|
|-------------------------------------------------------|
|-------------------------------------------------------|
|                                                       |
|-------------------------------------------------------|
|-------------------------------------------------------|
|-------------------------------------------------------|
|2------------------------------------------------------|
|2------------------------------------------------------|
|0------------------------------------------------------|

|-------------------------------------------------------|
|-------------------------------------------------------|
|----9-------8-------9-------9h11-----------------------|
|9-9-----9-9-----9-9-----9-9----------------------------|
|-------------------------------------------------------|
|-------------------------------------------------------|
|                                                       |
|-------------------------------------------------------|
|----9-------7-------9-------9h10-----------------------|
|-------------------------------------------------------|
|9-9-----9-9-----9-9-----9-9----------------------------|
|-------------------------------------------------------|
|-------------------------------------------------------|
|                                                       |
|-------------------------------------------------------|
|-------------------------------------------------------|
|-------------------------------------------------------|
|11-----------------------------------------------------|
|11-----------------------------------------------------|
|9------------------------------------------------------|

|-------------------------------------------------------|
|-------------------------------------------------------|
|----9-------8-------9-------9h11-----------------------|
|9-9-----9-9-----9-9-----9-9----------------------------|
|-------------------------------------------------------|
|-------------------------------------------------------|
|                                                       |
|-------------------------------------------------------|
|----9-------7-------9-------9h10-----------------------|
|-------------------------------------------------------|
|9-9-----9-9-----9-9-----9-9----------------------------|
|-------------------------------------------------------|
|-------------------------------------------------------|
|                                                       |
|-------------------------------------------------------|
|-------------------------------------------------------|
|-------------------------------------------------------|
|9------------------------------------------------------|
|9------------------------------------------------------|
|7------------------------------------------------------|

|-------------------------------------------------------|
|-------------------------------------------------------|
|----9-------8-------9-------9h11-----------------------|
|9-9-----9-9-----9-9-----9-9----------------------------|
|-------------------------------------------------------|
|-------------------------------------------------------|
|                                                       |
|-------------------------------------------------------|
|----9-------7-------9-------9h10-----------------------|
|-------------------------------------------------------|
|9-9-----9-9-----9-9-----9-9----------------------------|
|-------------------------------------------------------|
|-------------------------------------------------------|
|                                                       |
|-------------------------------------------------------|
|-------------------------------------------------------|
|-------------------------------------------------------|
|7------------------------------------------------------|
|7------------------------------------------------------|
|5------------------------------------------------------|
                     Pre-chorus
|-------------------------------------------------------|
|-------------------------------------------------------|
|--------9------------8-------9-------------------------|
|-------------------------------------------------------|
|7-7---7-----7-7---7-----7-7----------------------------|
|-------------------------------------------------------|
|                                                       |
|-------------------------------------------------------|
|-------------------------------------------------------|
|-------------------------------------------------------|
|2------------------------------------------------------|
|2------------------------------------------------------|
|0------------------------------------------------------|

|-------------------------------------------------------|
|-------------------------------------------------------|
|--------9-----------8-------9--------------------------|
|-------------------------------------------------------|
|7-7---7-----7-7---7-----7-7----------------------------|
|-------------------------------------------------------|
|                                                       |
|-------------------------------------------------------|
|-------------------------------------------------------|
|-------------------------------------------------------|
|-------------------------------------------------------|
|-------------------------------------------------------|
|-------------------------------------------------------|

|-------------------------------------------------------|
|-------------------------------------------------------|
|--------9-----------8-------9--------------------------|
|-------------------------------------------------------|
|7-7---7-----7-7---7-----7-7----------------------------|
|-------------------------------------------------------|
|                                                       |
|-------------------------------------------------------|
|-------------------------------------------------------|
|-------------------------------------------------------|
|7------------------------------------------------------|
|7------------------------------------------------------|
|5------------------------------------------------------|

|-------------------------------------------------------|
|-------------------------------------------------------|
|--------9-----------8-------9--------------------------|
|-------------------------------------------------------|
|7-7---7-----7-7---7-----7-7----------------------------|
|-------------------------------------------------------|
|                                                       |
|-------------------------------------------------------|
|-------------------------------------------------------|
|-------------------------------------------------------|
|9------------------------------------------------------|
|9------------------------------------------------------|
|7------------------------------------------------------|

|-------------------------------------------------------|
|-------------------------------------------------------|
|--------9-----------8-------9--------------------------|
|-------------------------------------------------------|
|7-7---7-----7-7---7-----7-7----------------------------|
|-------------------------------------------------------|
|                                                       |
|-------------------------------------------------------|
|-------------------------------------------------------|
|-------------------------------------------------------|
|11-----------------------------------------------------|
|11-----------------------------------------------------|
|9------------------------------------------------------|

|-------------------------------------------------------|
|-------------------------------------------------------|
|--------9-----------8-------9--------------------------|
|-------------------------------------------------------|
|7-7---7-----7-7---7-----7-7----------------------------|
|-------------------------------------------------------|
|                                                       |
|-------------------------------------------------------|
|-------------------------------------------------------|
|-------------------------------------------------------|
|9------------------------------------------------------|
|9------------------------------------------------------|
|7------------------------------------------------------|

|-------------------------------------------------------|
|-------------------------------------------------------|
|--------9-----------8-------9--------------------------|
|-------------------------------------------------------|
|7-7---7-----7-7---7-----7-7----------------------------|
|-------------------------------------------------------|
|                                                       |
|-------------------------------------------------------|
|-------------------------------------------------------|
|-------------------------------------------------------|
|7------------------------------------------------------|
|7------------------------------------------------------|
|5------------------------------------------------------|

|-------------------------------------------------------|
|-------------------------------------------------------|
|--------9-----------8-------9--------------------------|
|-------------------------------------------------------|
|7-7---7-----7-7---7-----7-7----------------------------|
|-------------------------------------------------------|
|                                                       |
|-------------------------------------------------------|
|-------------------------------------------------------|
|-------------------------------------------------------|
|9------------------------------------------------------|
|9------------------------------------------------------|
|7------------------------------------------------------|
               "Like We've Got...
|-------------------------------------------------------|
|-------------------------------------------------------|
|-------------------------------------------------------|
|-------------------------------------------------------|
|-------------------------------------------------------|
|-------------------------------------------------------|
|                                                       |
|-------------------------------------------------------|
|-------------------------------------------------------|
|-------------------------------------------------------|
|11-----------------------------------------------------|
|11-----------------------------------------------------|
|9------------------------------------------------------|
                      Nothing to Hide"
|-------------------------------------------------------|
|-------------------------------------------------------|
|-------------------------------------------------------|
|-------------------------------------------------------|
|-------------------------------------------------------|
|-------------------------------------------------------|
|                                                       |
|-------------------------------------------------------|
|-------------------------------------------------------|
|-------------------------------------------------------|
|9------------------------------------------------------|
|9------------------------------------------------------|
|7------------------------------------------------------|

|-------------------------------------------------------|
|-------------------------------------------------------|
|-------------------------------------------------------|
|-------------------------------------------------------|
|-------------------------------------------------------|
|-------------------------------------------------------|
|                                                       |
|-------------------------------------------------------|
|-------------------------------------------------------|
|-------------------------------------------------------|
|7------------------------------------------------------|
|7------------------------------------------------------|
|5------------------------------------------------------|

|-------------------------------------------------------|
|-------------------------------------------------------|
|-------------------------------------------------------|
|-------------------------------------------------------|
|-------------------------------------------------------|
|-------------------------------------------------------|
|                                                       |
|-------------------------------------------------------|
|-------------------------------------------------------|
|-------------------------------------------------------|
|9------------------------------------------------------|
|9------------------------------------------------------|
|7------------------------------------------------------|

                    Chorus
|-------------------------------------------------------|
|-------------------------------------------------------|
|----2---4-6--------------------------------------------|
|2---x---x-x--------------------------------------------|
|2---0---2-4--------------------------------------------|
|0------------------------------------------------------|
|                                                       |
|-------------------------------------------------------|
|-------------------------------------------------------|
|-------------------------------------------------------|
|2---7---9-11--7-9--------------------------------------|
|2---7---9-11--7-9--------------------------------------|
|0---5---7-9---5-7--------------------------------------|

|-------------------------------------------------------|
|-------------------------------------------------------|
|----2---4-6---2----------------------------------------|
|2---x---x-x---x----------------------------------------|
|2---0---2-4---0----------------------------------------|
|0------------------------------------------------------|
|                                                       |
|-------------------------------------------------------|
|-------------------------------------------------------|
|-------------------------------------------------------|
|2---7---9-11--7----------------------------------------|
|2---7---9-11--7----------------------------------------|
|0---5---7-9---5----------------------------------------|
                   Bridge 2
|-------------------------------------------------------|
|-------------------------------------------------------|
|9-----11----13----14-----------------------------------|
|x-----x-----x-----x------------------------------------|
|7-----9-----11----12-----------------------------------|
|-------------------------------------------------------|
|                                                       | 4x
|-------------------------------------------------------|
|-------------------------------------------------------|
|9-----8-----6-----4------------------------------------|
|x-----x-----x-----x------------------------------------|
|7-----6-----4-----2------------------------------------|
|-------------------------------------------------------|

|-------------------------------------------------------|
|-------------------------------------------------------|
|--------4-6---2-4--------------------------------------|
|2-------x-x---x-x--------------------------------------|
|2-------2-4---0-2--------------------------------------|
|0------------------------------------------------------|
|                                                       |
|-------------------------------------------------------|
|-------------------------------------------------------|
|-------------------------------------------------------|
|2-------9-11--7-9--------------------------------------|
|2-------9-11--7-9--------------------------------------|
|0-------7-9---5-7--------------------------------------|

|-------------------------------------------------------|
|-------------------------------------------------------|
|----2---4-6---2-4--------------------------------------|
|2---x---x-x---x-x--------------------------------------|
|2---0---2-4---0-2--------------------------------------|
|0------------------------------------------------------|
|                                                       |
|-------------------------------------------------------|
|-------------------------------------------------------|
|-------------------------------------------------------|
|2---7---9-11--7-9--------------------------------------|
|2---7---9-11--7-9--------------------------------------|
|0---5---7-9---5-7--------------------------------------|

|-------------------------------------------------------|
|-------------------------------------------------------|
|9-----11-----13-----14---------------------------------|
|x-----x------x------x------2---------------------------|
|7-----9------11-----12-----2---------------------------|
|---------------------------0---------------------------|
|                                                       |
|-------------------------------------------------------|
|-------------------------------------------------------|
|9-----8------9------11---------------------------------|
|x-----x------x------x------2---------------------------|
|7-----6------7------9------2---------------------------|
|---------------------------0---------------------------|
Tap to rate this tab
 
# A B C D E F G H I J K L M N O P Q R S T U V W X Y Z