Song name
# A B C D E F G H I J K L M N O P Q R S T U V W X Y Z

All Time Low - Toxic Valentine tab

All Time Low-Toxic Valentine
This is my first tab evarr. I tried my best.
Anything wrong? let me know!   


Intro

e---------------------------------------|
b---------------------------------------|
g---------------------------------------|
d---7---77-12---1212-3---33-2---2-10-9-7|
a---7---77-12---1212-3---33-2---2-10-9-7|
D---7---77-12---1212-3---33-2---2-10-9-7|

Verse 1                                                  ....
e---------------------------------------| (2X)   e------------------|
b---------------------------------------|        b------------------|
g---------------------------------------|        g------------------|
d---7---77-7---77-7---77-7---777--------|        d---3~--55555555---|
a---7---77-8---88-9---99-8---888--------|        a---3~--55555555---|
D---7---77-7---77-7---77-7---777--------|        D---3~--55555555---|

Chorus
e-------------------------------------------|(2X)
b-------------------------------------------|
g-------------------------------------------|
d---77---1212---55---1212---3333333355555555|
a---77---1212---55---1212---3333333355555555|
D---77---1212---55---1212---3333333355555555|

Intro
e---------------------------------------|
b---------------------------------------|
g---------------------------------------|
d---7---77-12---1212-3---33-2---2-10-9-7|
a---7---77-12---1212-3---33-2---2-10-9-7|
D---7---77-12---1212-3---33-2---2-10-9-7|

Verse 2 (same as 1)                                      ....
e---------------------------------------| (2X)   e------------------|
b---------------------------------------|        b------------------|
g---------------------------------------|        g------------------|
d---7---77-7---77-7---77-7---777--------|        d---3~--55555555---|
a---7---77-8---88-9---99-8---888--------|        a---3~--55555555---|
D---7---77-7---77-7---77-7---777--------|        D---3~--55555555---|

Chorus
e-------------------------------------------|(2X)
b-------------------------------------------|
g-------------------------------------------|
d---77---1212---55---1212---3333333355555555|
a---77---1212---55---1212---3333333355555555|
D---77---1212---55---1212---3333333355555555|

Intro (2X)
e---------------------------------------|
b---------------------------------------|
g---------------------------------------|
d---7---77-12---1212-3---33-2---2-10-9-7|
a---7---77-12---1212-3---33-2---2-10-9-7|
D---7---77-12---1212-3---33-2---2-10-9-7|

Bridge
e----------------------------------------------------------|
b----------------------------------------------------------|
g----------------------------------------------------------|
d----------------------------------------------------------|
a---12~5~10~10-9-7~12~12-7-5~10~10-9-7~7-5-3333333355555555|
D---12~5~10~10-9-7~12~12-7-5~10~10-9-7~7-5-3333333355555555|

outro (same a chorus)
e-------------------------------------------|(4X) e-------------------------|
b-------------------------------------------|     b-------------------------|
g-------------------------------------------|     g-------------------------|
d---77---1212---55---1212---3333333355555555|     d---3333333355555555--777\|
a---77---1212---55---1212---3333333355555555|     a---3333333355555555--777\|
D---77---1212---55---1212---3333333355555555|     D---3333333355555555--777\|
Tap to rate this tab
# A B C D E F G H I J K L M N O P Q R S T U V W X Y Z