Song name
# A B C D E F G H I J K L M N O P Q R S T U V W X Y Z

All Time Low - Painting Flowers tab

****************************************************************************
PLEASE NOTE:

This is my first tab ever, I signed up just to do this because I caught on
to the rhythm guitar part while listening so I thought I would give it a
shot since know one else has. If you are having confusion on where to get
the song in full (It is 2/19/2010 as of now) feel free to email me and I
will gladly send you a link, or you can google: "download all time low
painting flowers mediafire" and you should find a mediafire link and should
be able to directly download it, if not feel free to email me and I can
send you the link or the actual song.

There is a third guitar part and many other parts and leads that I did not
tab because it was difficult to hear/find, much more be able to figure out
how to play, not a hard song but it was tough to tab. If you have issues
with it then try tabbing it yourself and you'll see lol But the part in the
verse, Jack does this type of lead alot in songs, such as Jeasey Rae and a
little in Weightless, I'm just guessing.

Thanks, Mike.
****************************************************************************


Artist: All Time Low
Song: Painting Flowers

Tuning: DEADGBE (Drop D)

-------------------------------Intro----------------------------------------


Guitar I
e---------------------------------------------------------------------------|
B---------------------------------------------------------------------------|
G-18~~~~~~--15~~~~~~--11~~~~~~----------------------------------------------|
D---------------------------------------------------------------------------|
A---------------------------------------------------------------------------|
D---------------------------------------------------------------------------|

Guitar II
e---------------------------------------------------------------------------|
B---------------------------------------------------------------------------|
G-----------6666-6666-3333-3333-4~~~~~~-------------------------------------|
D-4444-4444-6666-6666-3333-3333-4~~~~~~-------------------------------------|
A-4444-4444-4444-4444-1111-1111-2~~~~~~-------------------------------------|
D-4444-4444-----------------------------------------------------------------|


-------------------------------Verse 1--------------------------------------


Guitar I (comes in later in verse) <-- tough to get, but i'm guessing
e---------------------------------------------------------------------------|
B---------------------------------------------------------------------------|
G-------------18----------------------18----------------------18--18--------|
D-15h16-16-16---16-16-16--15h16-16-16---16-16-16--15h16-16-16---16--16------|
A---------------------------------------------------------------------------|
D-----*you can try pulling instead of hammering on 15 & 16*-----------------|

Guitar II
e---------------------------------------------------------------------------|
B---------------------------------------------------------------------------|
G------------------6~~~~~--------------------8~~~~~-------------------------|
D--4~~~~~~-6~~~~~~-6~~~~~~---4~~~~~~-6~~~~~~-8~~~~~~-------X2---------------|
A--4~~~~~~-6~~~~~~-4~~~~~~---4~~~~~~-6~~~~~~-6~~~~~~------------------------|
D--4~~~~~~-6~~~~~~-----------4~~~~~~-6~~~~~~--------------------------------|


-------------------------------Pre-Chorus-----------------------------------


Guitar I
e---------------------------------------------------------------------------|
B---------------------------------------------------------------------------|
G-------------18----------------------18----------------------18--18--------|
D-15h16-16-16---16-16-16--15h16-16-16---16-16-16--15h16-16-16---16--16------|
A---------------------------------------------------------------------------|
D-----*you can try pulling instead of hammering on 15 & 16*-----------------|

Guitar II
e---------------------------------------------------------------------------|
B---------------------------------------------------------------------------|
G--4444-4444-8888-8888-6666-6666-----------4444-4444-8888-8888-4444-4444----|
D--4444-4444-8888-8888-6666-6666-6666-6444-4444-4444-8888-8888-4444-4444----|
A--2222-2222-6666-6666-4444-4444-6666-6444-2222-2222-6666-6666-6666-6666----|
D--------------------------------6666-6444----------------------------------|
**** **** **** **** **** **** **** **** **** **** **** **** ****


-------------------------------Chorus---------------------------------------

Guitar I
e---------------------------------------------------------------------------|
B---------------------------------------------------------------------------|
G----------66666666-33333333-44444444----------66666666-33333333-66666666---|
D-44444444-66666666-33333333-44444444-44444444-66666666-33333333-66666666---|
A-44444444-44444444-11111111-22222222-44444444-44444444-11111111-44444444---|
D-44444444----------------------------44444444------------------------------|

Guitar II
e---------------------------------------------------------------------------|
B---------------------------------------------------------------------------|
G----------66666666-33333333-44444444----------66666666-33333333-66666666---|
D-44444444-66666666-33333333-44444444-44444444-66666666-33333333-66666666---|
A-44444444-44444444-11111111-22222222-44444444-44444444-11111111-44444444---|
D-44444444----------------------------44444444------------------------------|


-------------------------------Pre-Verse------------------------------------

Guitar I
e---------------------------------------------------------------------------|
B-/11~~~-11h12-12-12~~~-/16~~~~~~~~~\---------------------------------------|
G---------------------------------------------------------------------------|
D---------------------------------------------------------------------------|
A---------------------------------------------------------------------------|
D---------------------------------------------------------------------------|

Guitar II
e---------------------------------------------------------------------------|
B---------------------------------------------------------------------------|
G---------------------------------------------------------------------------|
D-4444-6666-1111-1111-------------------------------------------------------|
A-4444-6666-1111-1111-------------------------------------------------------|
D-4444-6666-1111-1111-------------------------------------------------------|


--------------------------------Verse 2-------------------------------------


Guitar I (comes in later in verse)
e---------------------------------------------------------------------------|
B---------------------------------------------------------------------------|
G-------------18----------------------18----------------------18--18--------|
D-15h16-16-16---16-16-16--15h16-16-16---16-16-16--15h16-16-16---16--16------|
A---------------------------------------------------------------------------|
D-----*you can try pulling instead of hammering on 15 & 16*-----------------|

Guitar II
e---------------------------------------------------------------------------|
B---------------------------------------------------------------------------|
G------------------6~~~~~--------------------8~~~~~~------------------------|
D--4~~~~~~-6~~~~~~-6~~~~~~---4~~~~~~-6~~~~~~-8~~~~~~-------X2---------------|
A--4~~~~~~-6~~~~~~-4~~~~~~---4~~~~~~-6~~~~~~-6~~~~~~------------------------|
D--4~~~~~~-6~~~~~~-----------4~~~~~~-6~~~~~~--------------------------------|

Guitar III  [just a little acoustic type part that plays into the chorus]
e-3p1-3h4--|  [i can hear there's more to it but can't really make it out but]
B----------|  [they make this part really clear right before the chorus starts]


-------------------------------Pre-Chorus-----------------------------------


Guitar I
e---------------------------------------------------------------------------|
B---------------------------------------------------------------------------|
G-------------18----------------------18----------------------18--18--------|
D-15h16-16-16---16-16-16--15h16-16-16---16-16-16--15h16-16-16---16--16------|
A---------------------------------------------------------------------------|
D-----*you can try pulling instead of hammering on 15 & 16*-----------------|

Guitar II
e---------------------------------------------------------------------------|
B---------------------------------------------------------------------------|
G--4444-4444-8888-8888-6666-6666-----------4444-4444-8888-8888-4444-4444----|
D--4444-4444-8888-8888-6666-6666-6666-6444-4444-4444-8888-8888-4444-4444----|
A--2222-2222-6666-6666-4444-4444-6666-6444-2222-2222-6666-6666-6666-6666----|
D--------------------------------6666-6444----------------------------------|
**** **** **** **** **** **** **** **** **** **** **** **** ****


-------------------------------Chorus---------------------------------------

Guitar I
e---------------------------------------------------------------------------|
B---------------------------------------------------------------------------|
G----------66666666-33333333-44444444----------66666666-[33333333-66666666]-|
D-44444444-66666666-33333333-44444444-44444444-66666666-[33333333-66666666]-|
A-44444444-44444444-11111111-22222222-44444444-44444444-[11111111-44444444]-|
D-44444444----------------------------44444444------------------X2----------|

Guitar II
e---------------------------------------------------------------------------|
B---------------------------------------------------------------------------|
G----------66666666-33333333-44444444----------66666666-[33333333-66666666]-|
D-44444444-66666666-33333333-44444444-44444444-66666666-[33333333-66666666]-|
A-44444444-44444444-11111111-22222222-44444444-44444444-[11111111-44444444]-|
D-44444444----------------------------44444444------------------X2----------|


-------------------------------Bridge---------------------------------------


Guitar I
e---------------------------------------------------------------------------|
B---------------------------------------------------------------------------|
G---------------------------------------------------------------------------|
D---------------------------------------------------------------------------|
A---------------------------------------------------------------------------|
D---------------------------------------------------------------------------|

Guitar II
e---------------------------------------------------------------------------|
B---------------------------------------------------------------------------|
G-3333-3333-6666-6666-3333-3333-6666-6666-----------------------------------|
D-3333-3333-6666-6666-3333-3333-6666-6666-----------------------------------|
A-1111-1111-4444-4444-1111-1111-4444-4444-----------------------------------|
D---------------------------------------------------------------------------|


-------------------------------Final Chorus---------------------------------

*There is a guitar playing the same chords from the previous choruses by
itself with just a little bit of gain*

Guitar I
e-[-----------]-------------------------------------------------------------|
B-[---rest----]-------------------------------------------------------------|
G-[----4------]-33333333-44444444---------44444444-[33333333-66666666]-6~~~-|
D-[---first---]-33333333-44444444-4444444-44444444-[33333333-66666666]-6~~~-|
A-[-chord set-]-11111111-22222222-4444444-22222222-[11111111-44444444]-4~~~-|
D-[-----------]-------------------4444444------------------X3---------------|

Guitar II
e-[-----------]-------------------------------------------------------------|
B-[---rest----]-------------------------------------------------------------|
G-[----4------]-33333333-44444444---------44444444-[33333333-66666666]-6~~~-|
D-[---first---]-33333333-44444444-4444444-44444444-[33333333-66666666]-6~~~-|
A-[-chord set-]-11111111-22222222-4444444-22222222-[11111111-44444444]-4~~~-|
D-[-----------]-------------------4444444------------------X3---------------|
Tap to rate this tab
# A B C D E F G H I J K L M N O P Q R S T U V W X Y Z