Song name
# A B C D E F G H I J K L M N O P Q R S T U V W X Y Z

All Time Low - Sick Little Games tab

This may be harder than the single note progression, but I think it sounds better and more fluid.

e|-------------------------------------------------------------------------|
B|-------------------------------------------------------------------------|
G|--11\-7-/-14-\-9~---9-\-7-/-9-\-11\-7-/-14-\-9---------------------------|
D|--x-\-x-/-x--\-x~---x-\-x-/-x-\-x-\-x-/-x--\-x---------------------------|
A|--9-\-5-/-12-\-7~---7-\-5-/-7-\-9-\-5-/-12-\-7---------------------------|
E|-------------------------------------------------------------------------|

e|-------------------------------------------------------------------------|
B|-------------------------------------------------------------------------|
G|--9-\-7-/-9-\-11\-7-/-14-\-9---9-\-7-/-9--12\-11\-7--12\-11\-7--9~\-7~~--|
D|--x-\-x-/-x-\-x-\-x-/-x--\-x---x-\-x-/-x--x-\-x-\-x--x-\-x-\-x--x~\-x~~--|
A|--7-\-5-/-7-\-9-\-5-/-12-\-7---7-\-5-/-7--10\-9-\-5--10\-9-\-5--7~\-5~~--|
E|-------------------------------------------------------------------------|


Thanks for looking at my tab :D


  ___________________________________
 /-----------------------------------\
|-------------------------------------|
|-Tabbed by - addictiveme@hotmail.com-|
|-------------------------------------|
 \-----------------------------------/
Tap to rate this tab
 
# A B C D E F G H I J K L M N O P Q R S T U V W X Y Z