Song name
# A B C D E F G H I J K L M N O P Q R S T U V W X Y Z

All Time Low - Therapy chords

Highlighted       Show chord diagrams
All time Low - Therapy
Standard Tuning

Amaj7       F#m
--0----------2--
--2----------2--
--1----------2--
--2----------4--
--0----------4--
--0----------2--

Intro Riff:
e --------------------------------------------------------------------------|
B ---2h3-2---2-------2h3-2---2------2----2-------2h3-2----2-----------------|
G --2------2---2----2------2---2---2-2--2-2-----2-------2---2---------------|
D ----------------0---------------------------0-----------------------------|
A -0------------------------------------------------------------------------|
E --------------------------------2----0------------------------------------|
Verse:
    A	               Amaj7
My ship went down in a sea of sound.
       F#m                 D
When I woke up alone I had everything.
    A                       Amaj7
A handful of moments I wish I could change.
	F#m    	                    D
And a tongue locking nightmare that cut like a blade
       A                 Amaj7		
In a city of fools I was careful and cool 
         F#m	              D
but they tore me apart like a hurricane.
    A                       Amaj7              F#m             D
A handful of moments I wish I could change but I was carried away

[Chorus:]

        A
Give me therapy
      E	            F#m
I'm a walking travesty
         D
But I'm smiling at everything
A                 E                 F#m
Therapy, you were never a friend to me
             D
And you can keep all your misery.

(Play Riff)

Verse: (A  - Amaj7  F#m - D)
My lungs gave out
As i faced the crowd
I think that keeping this up could be dangerous
I'm flesh and bone
I'm a rolling stone
and the experts say I'm delirious

[Repeat Chorus:]

Bridge:
A                      E
Arrogant boy, love yourself so no one has to
        F#m
They're better off without you
         D
(They're better off without you)

A                     E
Arrogant boy, cause a scene like you're supposed to
        F#m
They'll fall asleep without you
        D
You're lucky if your memory remains

[Repeat Chorus] x2
Tap to rate this tab
# A B C D E F G H I J K L M N O P Q R S T U V W X Y Z