Song name
# A B C D E F G H I J K L M N O P Q R S T U V W X Y Z

All Time Low - Painting Flowers tab

The new All Time Low song from the album, Almost Alice
This is all tabbed by ear so it may not be 100% perfect, especially guitar 3 as it's 
to hear, but i think it sounds ok!

Guitar 1 (Lead)
Intro
(0.00 - 0.l6)
Play each of these notes along with the rhythm
e--------------------------------------------------------------|
B--------------------------------------------------------------|
G---18----------------------------15------------11~------------|
D--------------------------------------------------------------|
A--------------------------------------------------------------|
D--------------------------------------------------------------|

Verse 1
(0.16 - 0.29)
No Guitar
(0.29 - 0.41)
e--------------9---------------------|
B-----7-6-7-6----6-7-6---------------| (x8)
G------------------------------------|
D------------------------------------|
A------------------------------------|
D------------------------------------|

Pre-Chorus 1
(0.41 - 0.55)
e--------------9--------------------|
B-----7-6-7-6----6-7-6--------------| (x8)
G-----------------------------------|
D-----------------------------------|
A-----------------------------------|
D-----------------------------------|

Chorus 1
(0.55 - 1.21)
e---------------------------------------------------------------------|
B---------------------------------------------------------------------|
G------------------6-6-6-6-6-6-6-6-3-3-3-3-3-3-3-3-4-4-4-4-4-4-4-4----|
D--4-4-4-4-4-4-4-4-6-6-6-6-6-6-6-6-3-3-3-3-3-3-3-3-4-4-4-4-4-4-4-4----|
A--4-4-4-4-4-4-4-4-4-4-4-4-4-4-4-4-1-1-1-1-1-1-1-1-2-2-2-2-2-2-2-2----|
D--4-4-4-4-4-4-4-4----------------------------------------------------|

e----------------------------------------------------------------------|
B----------------------------------------------------------------------|
G--------------------4-4-4-4-4-4-4-4-3-3-3-3/4-4-4-4-6-6-6-6-6-6-6-6---|
D--1-1-1-1-1-1-1-1-1-4-4-4-4-4-4-4-4-3-3-3-3/4-4-4-4-6-6-6-6-6-6-6-6---|
A--1-1-1-1-1-1-1-1-1-2-2-2-2-2-2-2-2-1-1-1-1/2-2-2-2-4-4-4-4-4-4-4-4---|
D--1-1-1-1-1-1-1-1-1---------------------------------------------------|

Pre-Verse 1
(1.21 - 1.27)
e---------------------------------------------------------------------|
B-----/11---11-11--11/12--12-12-12---16~~~~~~~~\----------------------|
G---------------------------------------------------------------------|
D---------------------------------------------------------------------|
A---------------------------------------------------------------------|
D---------------------------------------------------------------------|

Verse 2
(1.27 - 1.41)
e--------------9---------------------|
B-----7-6-7-6----6-7-6---------------| (x8)
G------------------------------------|
D------------------------------------|
A------------------------------------|
D------------------------------------|

Pre-Chorus 2
(1.41 - 1.53)
e--------------9--------------------|
B-----7-6-7-6----6-7-6--------------| (x8)
G-----------------------------------|
D-----------------------------------|
A-----------------------------------|
D-----------------------------------|

Chorus 2
(1.53 - 2.19)
e---------------------------------------------------------------------|
B---------------------------------------------------------------------|
G------------------6-6-6-6-6-6-6-6-3-3-3-3-3-3-3-3-4-4-4-4-4-4-4-4----|
D--4-4-4-4-4-4-4-4-6-6-6-6-6-6-6-6-3-3-3-3-3-3-3-3-4-4-4-4-4-4-4-4----|
A--4-4-4-4-4-4-4-4-4-4-4-4-4-4-4-4-1-1-1-1-1-1-1-1-2-2-2-2-2-2-2-2----|
D--4-4-4-4-4-4-4-4----------------------------------------------------|

e----------------------------------------------------------------------|
B----------------------------------------------------------------------|
G--------------------4-4-4-4-4-4-4-4-3-3-3-3/4-4-4-4-6-6-6-6-6-6-6-6---|
D--1-1-1-1-1-1-1-1-1-4-4-4-4-4-4-4-4-3-3-3-3/4-4-4-4-6-6-6-6-6-6-6-6---|
A--1-1-1-1-1-1-1-1-1-2-2-2-2-2-2-2-2-1-1-1-1/2-2-2-2-4-4-4-4-4-4-4-4---|
D--1-1-1-1-1-1-1-1-1---------------------------------------------------|

Bridge
(2.19 - 2.35)
e--------------------------------------------|
B--------------------------------------------|
G----3-3-3-3/4-4-4-4-6-6-6-6-6-6-6-6---------|
D----3-3-3-3/4-4-4-4-6-6-6-6-6-6-6-6---------|
A----1-1-1-1/2-2-2-2-4-4-4-4-4-4-4-4---------|
D--------------------------------------------|

e-----------------------------------------------------------|
B-----------------------------------------------------------|
G----4-4-4-4-4-4-4-4-6-6-6-6-6-6-6-6-4-4-4-4-4-4-4-4--------|
D----4-4-4-4-4-4-4-4-6-6-6-6-6-6-6-6-4-4-4-4-4-4-4-4-4~-----|
A----2-2-2-2-2-2-2-2-4-4-4-4-4-4-4-4-2-2-2-2-2-2-2-2-4~-----|
D----------------------------------------------------4~-----|

Chorus 3
(2.35 - 3.25)
Clean with little gain                Turn up gain
e------------------------------------------------------------------------|
B------------------------------------------------------------------------|
G--------------------6---6---6--6--6--3-3-3-3-3-3-3-3-4-4-4-4-4-4-4-4----|
D--4---4---4-4-4--4--6---6---6--6--6--3-3-3-3-3-3-3-3-4-4-4-4-4-4-4-4----|
A--4---4---4-4-4--4--4---4---4--4--4--1-1-1-1-1-1-1-1-2-2-2-2-2-2-2-2----|
D--4---4---4-4-4--4------------------------------------------------------|

e----------------------------------------------------------------------|
B----------------------------------------------------------------------|
G--------------------4-4-4-4-4-4-4-4-3-3-3-3/4-4-4-4-6-6-6-6-6-6-6-6---|
D--1-1-1-1-1-1-1-1-1-4-4-4-4-4-4-4-4-3-3-3-3/4-4-4-4-6-6-6-6-6-6-6-6---|
A--1-1-1-1-1-1-1-1-1-2-2-2-2-2-2-2-2-1-1-1-1/2-2-2-2-4-4-4-4-4-4-4-4---|
D--1-1-1-1-1-1-1-1-1---------------------------------------------------|

e------------------------------------------|
B------------------------------------------|
G---3-3-3-3/4-4-4-4-6-6-6-6-6-6-6-6--------|
D---3-3-3-3/4-4-4-4-6-6-6-6-6-6-6-6--------|
A---1-1-1-1/2-2-2-2-4-4-4-4-4-4-4-4--------|
D------------------------------------------|

e-----------------------------|
B-----------------------------|
G---3-3-3-3/4-4-4-4-6~--------|
D---3-3-3-3/4-4-4-4-6~--------|
A---1-1-1-1/2-2-2-2-4~--------|
D-----------------------------|


Guitar 2 (Rhythm)
Intro
(0.00 - 0.l6)
e--------------------------------------------------------------------|
B--------------------------------------------------------------------|
G-------------------6-6-6-6-6-6-6-6-3-3-3-3-3-3-3-3-4~---------------|
D---4-4-4-4-4-4-4-4-6-6-6-6-6-6-6-6-3-3-3-3-3-3-3-3-4~---------------|
A---4-4-4-4-4-4-4-4-4-4-4-4-4-4-4-4-1-1-1-1-1-1-1-1-2~---------------|
D---4-4-4-4-4-4-4-4--------------------------------------------------|

Verse 1
(0.16 - 0.41)
e--------------------------------------------|
B--------------------------------------------|
G--------------------------8~----------------|
D----4~--------4/6~--------8~----------------|   (x4)
A----4~--------4/6~--------6~----------------|
D----4~--------4/6~--------------------------|

Pre-Chorus 1
(0.41 - 0.55)
                                    PM
      ..............................................................
e-------------------------------------------------------------------------|
B-------------------------------------------------------------------------|
G----4-4-4-4-4-4-4-4-8-8-8-8-8-8-8-8-4-4-4-4-4-4-4-4----------------------|
D----4-4-4-4-4-4-4-4-8-8-8-8-8-8-8-8-4-4-4-4-4-4-4-4-4/6-6-6-6-6-6\4------|
A----2-2-2-2-2-2-2-2-6-6-6-6-6-6-6-6-2-2-2-2-2-2-2-2-4/6-6-6-6-6-6\4------|
D----------------------------------------------------4/6-6-6-6-6-6\4------|

                                     PM
      ..............................................
e------------------------------------------------------------------------|
B------------------------------------------------------------------------|
G----4-4-4-4-4-4-4-4-8-8-8-8-8-8-8-8-6-6-6-6-6-6-6-6-6-6-6-6-6-6-6-6-----|
D----4-4-4-4-4-4-4-4-8-8-8-8-8-8-8-8-6-6-6-6-6-6-6-6-6-6-6-6-6-6-6-6-----|
A----2-2-2-2-2-2-2-2-6-6-6-6-6-6-6-6-4-4-4-4-4-4-4-4-4-4-4-4-4-4-4-4-----|
D------------------------------------------------------------------------|

Chorus 1
(0.55 - 1.21)
e---------------------------------------------------------------------|
B---------------------------------------------------------------------|
G------------------6-6-6-6-6-6-6-6-3-3-3-3-3-3-3-3-4-4-4-4-4-4-4-4----|
D--4-4-4-4-4-4-4-4-6-6-6-6-6-6-6-6-3-3-3-3-3-3-3-3-4-4-4-4-4-4-4-4----|
A--4-4-4-4-4-4-4-4-4-4-4-4-4-4-4-4-1-1-1-1-1-1-1-1-2-2-2-2-2-2-2-2----|
D--4-4-4-4-4-4-4-4----------------------------------------------------|

e----------------------------------------------------------------------|
B----------------------------------------------------------------------|
G--------------------4-4-4-4-4-4-4-4-3-3-3-3/4-4-4-4-6-6-6-6-6-6-6-6---|
D--1-1-1-1-1-1-1-1-1-4-4-4-4-4-4-4-4-3-3-3-3/4-4-4-4-6-6-6-6-6-6-6-6---|
A--1-1-1-1-1-1-1-1-1-2-2-2-2-2-2-2-2-1-1-1-1/2-2-2-2-4-4-4-4-4-4-4-4---|
D--1-1-1-1-1-1-1-1-1---------------------------------------------------|

Pre-Verse 1
(1.21 - 1.27)
e-----------------------------------------------------|
B-----------------------------------------------------|
G-----------------------------------------------------|
D---4-4-4-4-4/6-6-6-6-1-1-1-1-1-1-1-1-1---------------|
A---4-4-4-4-4/6-6-6-6-1-1-1-1-1-1-1-1-1---------------|
D---4-4-4-4-4/6-6-6-6-1-1-1-1-1-1-1-1-1---------------|

Verse 2
(1.27 - 1.41)
e--------------------------------------------|
B--------------------------------------------|
G--------------------------8~----------------|
D----4~--------4/6~--------8~----------------|   (x2)
A----4~--------4/6~--------6~----------------|
D----4~--------4/6~--------------------------|

Pre-Chorus 2
(1.41 - 1.53)
                                     PM
      ...............................................................
e-------------------------------------------------------------------------|
B-------------------------------------------------------------------------|
G----4-4-4-4-4-4-4-4-8-8-8-8-8-8-8-8-4-4-4-4-4-4-4-4----------------------|
D----4-4-4-4-4-4-4-4-8-8-8-8-8-8-8-8-4-4-4-4-4-4-4-4-4/6-6-6-6-6-6\4------|
A----2-2-2-2-2-2-2-2-6-6-6-6-6-6-6-6-2-2-2-2-2-2-2-2-4/6-6-6-6-6-6\4------|
D----------------------------------------------------4/6-6-6-6-6-6\4------|

                                     PM
     ...............................................
e------------------------------------------------------------------------|
B------------------------------------------------------------------------|
G----4-4-4-4-4-4-4-4-8-8-8-8-8-8-8-8-6-6-6-6-6-6-6-6-6-6-6-6-6-6-6-6-----|
D----4-4-4-4-4-4-4-4-8-8-8-8-8-8-8-8-6-6-6-6-6-6-6-6-6-6-6-6-6-6-6-6-----|
A----2-2-2-2-2-2-2-2-6-6-6-6-6-6-6-6-4-4-4-4-4-4-4-4-4-4-4-4-4-4-4-4-----|
D------------------------------------------------------------------------|

Chorus 2
(1.53 - 2.19)
e---------------------------------------------------------------------|
B---------------------------------------------------------------------|
G------------------6-6-6-6-6-6-6-6-3-3-3-3-3-3-3-3-4-4-4-4-4-4-4-4----|
D--4-4-4-4-4-4-4-4-6-6-6-6-6-6-6-6-3-3-3-3-3-3-3-3-4-4-4-4-4-4-4-4----|
A--4-4-4-4-4-4-4-4-4-4-4-4-4-4-4-4-1-1-1-1-1-1-1-1-2-2-2-2-2-2-2-2----|
D--4-4-4-4-4-4-4-4----------------------------------------------------|

e----------------------------------------------------------------------|
B----------------------------------------------------------------------|
G--------------------4-4-4-4-4-4-4-4-3-3-3-3/4-4-4-4-6-6-6-6-6-6-6-6---|
D--1-1-1-1-1-1-1-1-1-4-4-4-4-4-4-4-4-3-3-3-3/4-4-4-4-6-6-6-6-6-6-6-6---|
A--1-1-1-1-1-1-1-1-1-2-2-2-2-2-2-2-2-1-1-1-1/2-2-2-2-4-4-4-4-4-4-4-4---|
D--1-1-1-1-1-1-1-1-1---------------------------------------------------|

Bridge
(2.19 - 2.35)
e--------------------------------------------|
B--------------------------------------------|
G----3-3-3-3/4-4-4-4-6-6-6-6-6-6-6-6---------|
D----3-3-3-3/4-4-4-4-6-6-6-6-6-6-6-6---------|
A----1-1-1-1/2-2-2-2-4-4-4-4-4-4-4-4---------|
D--------------------------------------------|

e-----------------------------------------------------------|
B-----------------------------------------------------------|
G----4-4-4-4-4-4-4-4-6-6-6-6-6-6-6-6-4-4-4-4-4-4-4-4--------|
D----4-4-4-4-4-4-4-4-6-6-6-6-6-6-6-6-4-4-4-4-4-4-4-4-4~-----|
A----2-2-2-2-2-2-2-2-4-4-4-4-4-4-4-4-2-2-2-2-2-2-2-2-4~-----|
D----------------------------------------------------4~-----|

Chorus 3
(2.35 - 3.25)
       No 2nd Guitar while 1st plays
e [-----------------------------------] ----------------------------------|
B [-----------------------------------] ----------------------------------|
G [-------------------6---6---6--6--6-] -3-3-3-3-3-3-3-3-4-4-4-4-4-4-4-4--|
D [-4---4---4-4-4--4--6---6---6--6--6-] -3-3-3-3-3-3-3-3-4-4-4-4-4-4-4-4--|
A [-4---4---4-4-4--4--4---4---4--4--4-] -1-1-1-1-1-1-1-1-2-2-2-2-2-2-2-2--|
D [-4---4---4-4-4--4------------------] ----------------------------------|

e----------------------------------------------------------------------|
B----------------------------------------------------------------------|
G--------------------4-4-4-4-4-4-4-4-3-3-3-3/4-4-4-4-6-6-6-6-6-6-6-6---|
D--1-1-1-1-1-1-1-1-1-4-4-4-4-4-4-4-4-3-3-3-3/4-4-4-4-6-6-6-6-6-6-6-6---|
A--1-1-1-1-1-1-1-1-1-2-2-2-2-2-2-2-2-1-1-1-1/2-2-2-2-4-4-4-4-4-4-4-4---|
D--1-1-1-1-1-1-1-1-1---------------------------------------------------|

e------------------------------------------|
B------------------------------------------|
G---3-3-3-3/4-4-4-4-6-6-6-6-6-6-6-6--------|
D---3-3-3-3/4-4-4-4-6-6-6-6-6-6-6-6--------|
A---1-1-1-1/2-2-2-2-4-4-4-4-4-4-4-4--------|
D------------------------------------------|

e-----------------------------|
B-----------------------------|
G---3-3-3-3/4-4-4-4-6~--------|
D---3-3-3-3/4-4-4-4-6~--------|
A---1-1-1-1/2-2-2-2-4~--------|
D-----------------------------|


Guitar 3 (Acoustic)
Intro
(0.00 - 0.l6)
e--------------------------------------------------------------|
B---11---------11---------9--------11----------9-11-9----------|
G------11-11------11-11-----11-11-----11-11-----------11-------|
D--------------------------------------------------------------|
A--------------------------------------------------------------|
D--------------------------------------------------------------|

e-------------------------------------------------------------|
B---11---------11---------9--------11----------12-11-12-11----|
G------11-11------11-11-----11-11-----11-11-------------------|
D-------------------------------------------------------------|
A-------------------------------------------------------------|
D-------------------------------------------------------------|

e------------------------------------------------------------7~-----|
B---11---------11---------9--------11----------9-11-9--------7~-----|
G------11-11------11-11-----11-11-----11-11-----------11------------|
D-------------------------------------------------------------------|
A-------------------------------------------------------------------|
D-------------------------------------------------------------------|

Verse 1
(0.16 - 0.41)
Tough to hear what the rhythm is but I think it is something like...
e---------------------------------------------|
B-----7-6-6-7-6-6-7-6-7-6-6-7-6-6-7-6---------|
G---------------------------------------------|
D---------------------------------------------|   (x8)
A---------------------------------------------|
D---------------------------------------------|

Pre-Chorus 1
(0.41 - 0.55)
e---------------------------------------------|
B-----7-6-6-7-6-6-7-6-7-6-6-7-6-6-7-6---------|
G---------------------------------------------|
D---------------------------------------------|   (x4)
A---------------------------------------------|
D---------------------------------------------|

Chorus 1
(0.55 - 1.21)
I can't hear the acoustic guitar properly to make out the chords played (check chords 
of the tab they may have the chords)

Pre-Verse 1
(1.21 - 1.27)
e---2--2--2--2--2--2--2--2----------|
B-----------------------------------|
G-----------------------------------|
D-----------------------------------|
A-----------------------------------|
D-----------------------------------|

Verse 2
(1.27 - 1.41)
e---------------------------------------------|
B-----7-6-6-7-6-6-7-6-7-6-6-7-6-6-7-6---------|
G---------------------------------------------|
D---------------------------------------------|   (x4)
A---------------------------------------------|
D---------------------------------------------|

Pre-Chorus 2
(1.41 - 1.53)
e-------------------------------------------------------------9--9-------|
B-----7-6-7-6-9-6-7-6-7-6-7-6-9-6-7-6-7-6-7-6-9-6-7-6-7-6-7-6------------|
G------------------------------------------------------------------------|
D------------------------------------------------------------------------|
A------------------------------------------------------------------------|
D------------------------------------------------------------------------|

e-------------------------------------------------------|
B-----7-6-7-6-9-6-7-6-7-6-7-6--11--9----9--9--9-7-6-7---|
G-------------------------------------------------------|
D-------------------------------------------------------|
A-------------------------------------------------------|
D-------------------------------------------------------|

Chorus 2
(1.53 - 2.19)
Again I canít hear the acoustic guitar properly to make out the chords played

Bridge
(2.19 - 2.26)
Same chords as last part of chorus
(2.26 - 2.35)
e--9----9----9----9----9--9--------------|
B---7-7--7-7--7-7--7-7--7--7-------------|
G----------------------------------------|    (x2)
D----------------------------------------|
A----------------------------------------|
D----------------------------------------|

Chorus 3
(2.35 - 3.25)
There is definitely an acoustic guitar playing chords but it is difficult to make them 
they will most likely follow the power chords

Thanks for checking out the tab!
If you have any corrections or comments then feel free to let me know!
Enjoy!
Tap to rate this tab
 
# A B C D E F G H I J K L M N O P Q R S T U V W X Y Z