Song name
# A B C D E F G H I J K L M N O P Q R S T U V W X Y Z

All Time Low - Party Scene tab

-------------------------------------------------------------------------------
			     The Party Scene - All Time Low
-------------------------------------------------------------------------------
Tabbed by: Izzy-M
Email: definatleyisobelle@hotmail.com

I couldn't find a decent tab for this song so i thought i'd give it a go.

Tuning: Drop D

Verse 1
e|------------------------|
B|------------------------|
G|-4/6-4/6-2~22~2222~2222-|
D|-4/6-4/6-2~22~2222~2222-| x4
A|-2/4-2/4-0~00~0000~0000-|
D|------------------------|

Interlude 
(Lead)
e|---22-44-22-|
B|-22---------|
G|------------|
D|------------| x8
A|------------|
D|------------|

Rhythm
e|---------------------------------------------------| 
B|---------------------------------------------------|   
G|-66-66-66-66-66-66-66-66-22-22-22-22-22-22-22-2222-|   
D|-66-66-66-66-66-66-66-66-22-22-22-22-22-22-22-2222-| 
A|-44-44-44-44-44-44-44-44-00-00-00-00-00-00-00-0000-|   
D|---------------------------------------------------|   
pm.............................................

Pre-Chorus (here's to the first time...)
e|------------------------------------|
B|------------------------------------|
G|-22222222----------4444444444444444-| 
D|-22222222-22222222-4444444444444444-| x2
A|-00000000-22222222-2222222222222222-|
D|----------22222222------------------|

Chorus (stay seventeen...)
e|-----------------|
B|-----------------|
G|-666-222-----444-|
D|-666-222-222-444-| x3
A|-444-000-222-222-|
D|---------222-----|

e|------------|
B|------------|
G|-4/6-4/6-2~-|
D|-4/6-4/6-2~-|
A|-2/4-2/4-0~-|
D|------------|

Verse 2 
e|---------------------------------------------------------------------------|
B|---------------------------------------------------------------------------|
G|-6666666666666666------------------2222222222222222-4444444444444444-------|
D|-6666666666666666-2222222222222222-2222222222222222-4444444444444444-------|
A|-4444444444444444-2222222222222222-0000000000000000-2222222222222222-------|
D|------------------2222222222222222-----------------------------------------|
pm.........................................................................
(not every strum is palm muted so listen to the song to get the exact rhythm)

Pre-Chorus (sunrise through the window pane...)
e|------------------------------------|
B|------------------------------------|
G|-22222222----------4444444444444444-| 
D|-22222222-22222222-4444444444444444-| x2
A|-00000000-22222222-2222222222222222-|
D|----------22222222------------------|

Chorus (stay seventeen...)
e|-----------------|
B|-----------------|
G|-666-222-----444-|
D|-666-222-222-444-| x3
A|-444-000-222-222-|
D|---------222-----|

e|------------|
B|------------|
G|-4/6-4/6-2~-|
D|-4/6-4/6-2~-|
A|-2/4-2/4-0~-|
D|------------|

Verse 3
e|---------------------------------------------------------------------------|
B|---------------------------------------------------------------------------|
G|-6666666666666666------------------2222222222222222-4444444444444444-------|
D|-6666666666666666-2222222222222222-2222222222222222-4444444444444444-------|
A|-4444444444444444-2222222222222222-0000000000000000-2222222222222222-------|
D|------------------2222222222222222-----------------------------------------|
pm.........................................................................
(not every strum is palm muted so listen to the song to get the exact rhythm)

e|----------------------------------------------------------------|
B|----------------------------------------------------------------|
G|-6666666666666666------------------2222222222222222-22222222-2~-|
D|-6666666666666666-2222222222222222-2222222222222222-22222222-2~-|
A|-4444444444444444-2222222222222222-0000000000000000-00000000-0~-|
D|------------------2222222222222222------------------------------|
pm                                                    ........

Solo 
(Lead)
e|-----------------------------------------------|
B|-----------------------------------------------|
G|-/13-------------------------------------------|
D|-----13-14-14-13h14-16-14-13-14-13-11-13-11-9~-|
A|-----------------------------------------------|
D|-----------------------------------------------|

e|--------------------------------------|
B|---12~--------------------------------|
G|------14-13-14-13-11-13-11-9-11-9-8-9-|
D|-14-----------------------------------|
A|--------------------------------------|
D|--------------------------------------|

e|----------------------------------|
B|----------------------------------|
G|-8-9-11-9-11-13-11-13-14-13-14-16-|
D|----------------------------------|
A|----------------------------------|
D|----------------------------------|

e|-------------------------------|
B|--------------------------17---|
G|-13h14p13-16--13h14p13---------| 
D|----------------------14----14-| x3
A|-------------------------------|
D|-------------------------------|

e|----------------|
B|----------------|
G|-13x4-14x4-16x8-| 
D|----------------|
A|----------------|
D|----------------|

(Rhythm)
e|------------------------------------|
B|------------------------------------|
G|-22222222----------4444444444444444-| 
D|-22222222-22222222-4444444444444444-| x4
A|-00000000-22222222-2222222222222222-|
D|----------22222222------------------|

Chorus (stay seventeen...)
e|-----------------|
B|-----------------|
G|-666-222-----444-|
D|-666-222-222-444-| x3
A|-444-000-222-222-|
D|---------222-----|

e|------------|
B|------------|
G|-4/6-4/6-2~-|
D|-4/6-4/6-2~-|
A|-2/4-2/4-0~-|
D|------------|

Outro 
(Lead)
e|---22-44-22-|
B|-22---------|
G|------------|
D|------------|
A|------------| x8
D|------------|

(Rhythm)
e|------------------------------------------------------| 
B|------------------------------------------------------|   
G|-66-66-66-66-66-66-66-66-22-22-22-22-22-22-22-2222-6~-|   
D|-66-66-66-66-66-66-66-66-22-22-22-22-22-22-22-2222-6~-| 
A|-44-44-44-44-44-44-44-44-00-00-00-00-00-00-00-0000-4~-|   
D|------------------------------------------------------|   
pm..................................................
(Last note rings out)

Please comment with any corrections. Thank You.
Tap to rate this tab
 
# A B C D E F G H I J K L M N O P Q R S T U V W X Y Z