All Time Low - Stella tab

This is a tab on stella by all time low
I used the album Straight to DVD
Pm me for correctings

Intro Lead

e|--------------------------------------------------|
b|--------------------------------------------------|
g|--------------------------------------------------|
D|--------4-6-------4-6------6-4----6-4-------------|
A|-----/7-------/6--------/4-----/2-----\7----------|
D|--------------------------------------------------|

Verse 1
e|-----------------------------------------------------------------------------|
B|-----------------------------------------------------------------------------|
G|-------------666666666--------------4444444444-------------------------------|
D|--222222222--666666666--7777777777--4444444444-------------------------------|
A|--222222222--444444444--7777777777--2222222222-------------------------------|
D|--222222222-------------7777777777-------------------------------------------|
PM  .........  .........  ..........  ..........

e|----------------------------------------------------------------|
B|----------------------------------------------------------------|
G|-------------666666666--------------4444444444------------------|
D|--222222222--666666666--7777777777--4444444444------------------|
A|--222222222--444444444--7777777777--2222222222------------------|
D|--222222222-------------7777777777------------------------------|
PM  .........  .........  .....

Chorus
e|----------------------------------------------------------------------------|
B|----------------------------------------------------------------------------|
G|---------------------------6666666666--4444444444---------------------------|
D|--22222222222--6666666666--6666666666--4444444444---------------------------|
A|--22222222222--6666666666--4444444444--2222222222---------------------------|
D|--22222222222--6666666666---------------------------------------------------|

e|----------------------------------------------------------------------------|
B|----------------------------------------------------------------------------|
G|---------------------------6666666666--4------------------------------------|
D|--22222222222--6666666666--6666666666--4------------------------------------|
A|--22222222222--6666666666--4444444444--2------------------------------------|
D|--22222222222--6666666666---------------------------------------------------|


Intro Lead

e|--------------------------------------------------|
b|--------------------------------------------------|
g|--------------------------------------------------|
D|--------4-6-------4-6------6-4----6-4-------------|
A|-----/7-------/6--------/4-----/2-----\7----------|
D|--------------------------------------------------|

Verse 2
e|-----------------------------------------------------------------------------|
B|-----------------------------------------------------------------------------|
G|-------------666666666--------------4444444444-------------------------------|
D|--222222222--666666666--7777777777--4444444444-------------------------------|
A|--222222222--444444444--7777777777--2222222222-------------------------------|
D|--222222222-------------7777777777-------------------------------------------|
PM  .........  .........  ..........  ..........

e|----------------------------------------------------------------|
B|----------------------------------------------------------------|
G|-------------666666666--------------4444444444------------------|
D|--222222222--666666666--7777777777--4444444444------------------|
A|--222222222--444444444--7777777777--2222222222------------------|
D|--222222222-------------7777777777------------------------------|
PM  .........  .........  .....

Chorus
e|----------------------------------------------------------------------------|
B|----------------------------------------------------------------------------|
G|---------------------------6666666666--4444444444---------------------------|
D|--22222222222--6666666666--6666666666--4444444444---------------------------|
A|--22222222222--6666666666--4444444444--2222222222---------------------------|
D|--22222222222--6666666666---------------------------------------------------|

e|----------------------------------------------------------------------------|
B|----------------------------------------------------------------------------|
G|---------------------------6666666666--4------------------------------------|
D|--22222222222--6666666666--6666666666--4------------------------------------|
A|--22222222222--6666666666--4444444444--2------------------------------------|
D|--22222222222--6666666666---------------------------------------------------|


Bridge
e|--------------------------------------------------------------------------|
B|--------------------------------------------------------------------------|
G|--66666666666--4444444444-------------4~--------66666666666--4444444444---|
D|--66666666666--4444444444---7~---22~--4~--2~----66666666666--4444444444---|
A|--44444444444--2222222222---7~---22~--2~--2~----44444444444--2222222222---|
D|----------------------------7~---22~------2~------------------------------|
PM                                                                  ....

e|----------------------------------------------------------------------------|
B|----------------------------------------------------------------------------|
G|------------------------4---------------------------------------------------|
D|---------------7~--22~--4---------------------------------------------------|
A|---------------7~--22~--2----------/7---/6---/4--/2-------------------------|
D|---------------7~--22~------------------------------------------------------|

Chorus
e|----------------------------------------------------------------------------|
B|----------------------------------------------------------------------------|
G|---------------------------6666666666--4444444444---------------------------|
D|--22222222222--6666666666--6666666666--4444444444---------------------------|
A|--22222222222--6666666666--4444444444--2222222222---------------------------|
D|--22222222222--6666666666---------------------------------------------------|

e|----------------------------------------------------------------------------|
B|----------------------------------------------------------------------------|
G|---------------------------6666666666--4------------------------------------|
D|--22222222222--6666666666--6666666666--4------------------------------------|
A|--22222222222--6666666666--4444444444--2------------------------------------|
D|--22222222222--6666666666---------------------------------------------------|
Tap to rate this tab
 
# A B C D E F G H I J K L M N O P Q R S T U V W X Y Z