All Time Low - Remembering Sunday tab

-----------------------------------------------------------------------------
			     Remembering Sunday - All Time Low
-----------------------------------------------------------------------------
Tabbed by:ATLNP


Tuning:Half-step down
Capo on 2nd fret
Intro:
e|---------------------------------------------------------------------------|
B|--3-----1--2---------------------------------------------------------------|
G|--0-----0------------------------------------------------------------------|
D|--2--2--2--2---------------------------------------------------------------|
A|--3--2--3--0---------------------------------------------------------------|
E|--0--0--0--0---------------------------------------------------------------|

Verse:
e|----------------------------------------------------------------------------|
B|--1-----1-----1--2-----------2----------------------------------------------|
G|--0-----0-----0-------------------------------------------------------------|
D|--2--2--2--2--2--2--2--4--7--2----------------------------------------------|
A|--3--2--3--2--3--0--3--5--5-------------------------------------------------|
E|--0--0--0--0--0--0-----------0----------------------------------------------|
                      *  *  *
Chorus:
e|---------------------------------------------------------------------------|
B|--3--3--2------------------------------------------------------------------|
G|--0--0-----x2--------------------------------------------------------------|
D|--0--2--2------------------------------------------------------------------|
A|--2--3--0------------------------------------------------------------------|
E|--3------------------------------------------------------------------------|

Verse2:
e|---------------------------------------------------------------------------|
B|-----------2---------------------------------------------------------------|
G|--------------x2-----------------------------------------------------------|
D|--2--4--5--2---------------------------------------------------------------|
A|--3--5--7--0---------------------------------------------------------------|
E|---------------------------------------------------------------------------|
    *  *  *

Chorus:
e|---------------------------------------------------------------------------|
B|--3--3--2------------------------------------------------------------------|
G|--0--0----x2---------------------------------------------------------------|
D|--0--2--2------------------------------------------------------------------|
A|--2--3--0------------------------------------------------------------------|
E|--3------------------------------------------------------------------------|

Bridge:
e|---------------------------------------------------------------------------|
B|-----3--3--3--3--3--3--3--2--3--3--2---------------------------------------|
G|-----0--0--2--0--2--0--0-----0--0------------------------------------------|
D|--2--2--0--0--0--0--0--2--2--0--2--2---------------------------------------|
A|--2--3--2-----2-----2--3--0--2--3--0---------------------------------------|
E|--0-----3-----3-----3--------3---------------------------------------------|
                *  *

Outro:
e|---------------------------------------------------------------------------|
B|-----------------0---3-----------------------------------------------------|
G|----------------0----0-----------------------------------------------------|
D|--2--4--2--4---4-----0-----------------------------------------------------|
A|--3--5--3--5--5------2-----------------------------------------------------|
E|---------------------3-----------------------------------------------------|

************************************

| /   slide up
| \   slide down
| h   hammer-on
| p   pull-off
| ~   vibrato
| +   harmonic
| x   Mute note
| b   Bend
| pb  Pre-bend
| br  Bend release
| pbr Pre-bend release
| brb Bend release bend

************************************
Tap to rate this tab
 
# A B C D E F G H I J K L M N O P Q R S T U V W X Y Z