All Time Low - Vegas Acoustic tab

Band : All time low
Song : Vegas
Tuning : Standard 


verse 1
Palm mute these chords (if you want you can strum them)

    Tonight...                   Those
e|--3----------------------------3-----------|
B|--3----------------------------3-----------|
G|-------------------------------------------|   
D|-------------------------------2-----------|
A|--2----------------------------3-----------|
E|--3----------------------------------------|
      
    Another...                   One more 
e|--3----------------------------3-----------|
B|--3----------------------------3-----------|
G|-------------------------------------------|   
D|-------------------------------2-----------|
A|--2----------------------------3-----------|
E|--3----------------------------------------|

Pre Chorus : 
Strum these chords one time

   I'm sure...            Ever...
e|--3--------------------3---------|
B|--3--------------------3---------|
G|-----------------------2---------|
D|--2--------------------2---------|
A|--2------------------------------|
E|---------------------------------|


Chorus :


    We          We've     My       My friends Are
e|---3-----------3-------3---------3----------3----|
B|---3-----------3-------3---------3----------3----|
G|---------------2----------------------------2----|
D|---------------2-------2---------2---------------|
A|---2-------------------3---------2---------------|
E|---3---------------------------------------------|

The next verse follows immediatly after the D chord.

   If there's...                 And watch..
e|--3----------------------------3-----------|
B|--3----------------------------3-----------|
G|-------------------------------------------|   
D|-------------------------------2-----------|
A|--2----------------------------3-----------|
E|--3----------------------------------------|
      
    Memories...  In light...  Listening       Parents...     
e|--3------------3------------3---------------3----------|
B|--3------------3------------1---------------3----------|
G|---------------2----------------------------2----------|   
D|--2------------2------------2--------------------------|
A|--2-------------------------3--------------------------|
E|-------------------------------------------------------|

Bridge : 


   Now   Change       down      Marks   Town    More Distance   Between
e|----------------------------------------------------------------------|
B|-3-----0------------0---------0-------3-------0----0---------0--------|
G|-2-----4------------5---------7-------2-------4----5---------7--------|
D|-2-----4------------5---------7-------2-------4----5---------7--------|
A|-------2------------3---------5---------------2----3---------5--------|
E|----------------------------------------------------------------------|


Chorus : 

    We          We've     My       My friends Are
e|---3-----------3-------3---------3----------3----|
B|---3-----------3-------3---------3----------3----|
G|---------------2----------------------------2----|
D|---------------2-------2---------2---------------|
A|---2-------------------3---------2---------------|
E|---3---------------------------------------------|
     Make       We've    out       so         Live
e|---3-----------3-------3---------3----------3----|
B|---3-----------3-------3---------3----------3----|
G|---------------2----------------------------2----|
D|---------------2-------2---------2---------------|
A|---2-------------------3---------2---------------|
E|---3---------------------------------------------|


Verse 3 :
Again Palm mute these chords (if you want you can strum them)

    Tonight...                   Those
e|--3----------------------------3-----------|
B|--3----------------------------3-----------|
G|-------------------------------------------|   
D|-------------------------------2-----------|
A|--2----------------------------3-----------|
E|--3----------------------------------------|
      
    Another...                   One more 
e|--3----------------------------3-----------|
B|--3----------------------------3-----------|
G|-------------------------------------------|   
D|-------------------------------2-----------|
A|--2----------------------------3-----------|
E|--3----------------------------------------|

  
Bridge 2 :


    From coast to...            Giving
e|--3----------------------------3-----------|
B|--3----------------------------3-----------|
G|-------------------------------------------|   
D|-------------------------------2-----------|
A|--2----------------------------3-----------|
E|--3----------------------------------------|

    At night...                  The Nights
e|--3----------------------------3-----------|
B|--3----------------------------3-----------|
G|-------------------------------------------|   
D|-------------------------------2-----------|
A|--2----------------------------3-----------|
E|--3----------------------------------------|


Outro :
    
    I would have...        I do...    Anymore.
e|--3---------------------3----------3-------|
B|--3---------------------3----------3-------|
G|-----------------------------------2-------|   
D|------------------------2------------------|
A|--2---------------------3------------------|
E|--3----------------------------------------|

    I would have...        I do...    Anymore.
e|--3---------------------3----------3-------|
B|--3---------------------3----------3-------|
G|-----------------------------------2-------|   
D|------------------------2------------------|
A|--2---------------------3------------------|
E|--3----------------------------------------|

End on the D 

That's it. 
Have Fun ! 
Tap to rate this tab
 
# A B C D E F G H I J K L M N O P Q R S T U V W X Y Z