All Time Low - Therapy tab

All time low - Therapy
I didn't have the full song.

Intro 0:00/0:12
E|-------------------------------------------|
B|----2h3-2---2h3-2---2h3-2---2h3-2---2---2h3|
G|---2-------2-------2-------2-------2-2-2---|
D|----------0---------------0-----------0----|
A|--0---------------0---------------0--------|
E|-------------------------------------------|

Verse(My ship went down) 0:12/0:56
E|-------------------------------------------|
B|----2h3-2---2h3-2---2h3-2---2h3-2---2---2h3|
G|---2-------2-------2-------2-------2-2-2---| 3x
D|----------0---------------0-----------0----|
A|--0---------------0---------------0--------|
E|-------------------------------------------|

E|----------------------------------------|
B|----2h3-2---2h3-2---2h3-2---2h3-2---2---|
G|---2-------2-------2-------2-------2-2-2|
D|----------0---------------0-----------0-|
A|--0---------------0---------------0-----|
E|----------------------------------------|

Chorus(Give me Therapy, You were never....) 0:56/1:20

Pre-Verse 1:20/1:32
E|-------------------------------------------|
B|----2h3-2---2h3-2---2h3-2---2h3-2---2---2h3|
G|---2-------2-------2-------2-------2-2-2---|
D|----------0---------------0-----------0----|
A|--0---------------0---------------0--------|
E|-------------------------------------------|

Verse(My lungs gave out) 1:32/1:54
E|-------------------------------------------|
B|----2h3-2---2h3-2---2h3-2---2h3-2---2---2h3|
G|---2-------2-------2-------2-------2-2-2---|
D|----------0---------------0-----------0----|
A|--0---------------0---------------0--------|
E|-------------------------------------------|

E|----------------------------------------|
B|----2h3-2---2h3-2---2h3-2---2h3-2---2---|
G|---2-------2-------2-------2-------2-2-2|
D|----------0---------------0-----------0-|
A|--0---------------0---------------0-----|
E|----------------------------------------|

Chores(Give me Therapy, You were never....) 1:54/2:18

Bridge(Arrogant boy,) 2:18/2:40

Chores(Give me Therapy, You were never....) 2:40/3:06

Outro(Therapy, i'm a waking travesty) 3:06/3:48
Tap to rate this tab
 
# A B C D E F G H I J K L M N O P Q R S T U V W X Y Z