All Time Low - Merry Christmas Kiss My Ass tab

-------------------------------------------------------------------------------
			     MERRY CHRISTMAS (Kiss My Ass) - All Time Low
-------------------------------------------------------------------------------

In the key of E-Major
An early christmas-present for you!

NOTES: 
This is a pretty hard song to learn, it has many many chord changes in the chorus and bridge,
so listen carefully when the chord changes as I didn't really include the timing of the chords! 

Tuning: Standard

Intro:

e|---------------------------------------------------------------------------|
B|---------------------------------------------------------------------------|
G|---------------------------------------------------------------------------|
D|--2------------------------------------------------------------------------|
A|--2------------------------------------------------------------------------|
E|--0------------------------------------------------------------------------|


Verse:

e|---------------------------------------------------------------------------|
B|---------------------------------------------------------------------------|
G|------------6---2----------------------------------------------------------|
D|----2---6---6---2----------------------------------------------------------|
A|----2---6---4---0----------------------------------------------------------|
E|----0---4-----------------------x4-----------------------------------------|


Chorus:

e|---------------------------------------------------------------------------|
B|---------------------------------------------------------------------------|
G|----------------------------6-------4-------------5---6--4--2---2~--4------|
D|----2---7--6--4---9--7--6---6---4---4---2---7--6--6---6--4--2---2~--4------|
A|----2---7--6--4---9--7--6---4---4---2---2---7--6--3---4--2--0---0~--2------|
E|----0---5--4--2---7--5--4-------2-------0---5--4---------------------------|


After the chorus:

e|---------------------------------------------------------------------------|
B|---------------------------------------------------------------------------|
G|---------------------------------------------------------------------------|
D|---2-----------------------------------------------------------------------|
A|---2-----------------------------------------------------------------------|
E|---0-----------------------------------------------------------------------|

(Same as the intro)
Then you play

VERSE
CHORUS

after that:

Bridge:

e|---------------------------------------------------------------------------|
B|---------------------------------------------------------------------------|
G|---6---5---6---3---2--4--5--6---5---6---3---2---5---4----------------------|
D|---6---6---6---4---2--4--6--6---6---6---4---2---6---4----------------------|
A|---4---3---4---1---0--2--3--4---3---4---1---0---3---2----------------------|
E|---------------------------------------------------------------------------|

Then the CHORUS repeats again, but the first time they skip the starting E chord. 


And at last it ends on a E power chord

e|---------------------------------------------------------------------------|
B|---------------------------------------------------------------------------|
G|---------------------------------------------------------------------------|
D|---2-----------------------------------------------------------------------|
A|---2-----------------------------------------------------------------------|
E|---0-----------------------------------------------------------------------|

GL! And remember to listen for the chord changes as they aren't marked here!


************************************

| /   slide up
| \   slide down
| h   hammer-on
| p   pull-off
| ~   vibrato
| +   harmonic
| x   Mute note
| b   Bend
| pb  Pre-bend
| br  Bend release
| pbr Pre-bend release
| brb Bend release bend

************************************
Tap to rate this tab
 
# A B C D E F G H I J K L M N O P Q R S T U V W X Y Z