All Time Low - Umbrella tab

P     = Pull off
H     = Hammer on
/     = Slide up
\     = Slide down
PM    = Palm Mute




Intro

E|------------------------------------------|
B|------------------------------------------|
G|------------------------------------------|
D|----4--(Fade in with volume...)-----------|
A|----4--(Fade in with volume...)-----------|
E|----2--(Fade in with volume...)-----------|




Verse 1

  ------------------------------------------------------------------------|
  ------------------------------------------------------------------------|
  -----------------------------------------------------3-333333-----------|
  --4-44444444444444-6-66666666666666-3-33333333333333-3-333333-6-666666--|
  --4-44444444444444-6-66666666666666-3-33333333333333-1-111111-6-666666--|
  --2-22222222222222-4-44444444444444-1-11111111111111----------4-444444--|
     |______PM______| |______PM______| |______PM______| |__PM__| |__PM__|

  --------------------------------------------------------------------------|
  --------------------------------------------------------------------------|
  -----------------------------------------------------3333-5555-6666-------|
  --4-44444444444444-6-66666666666666-3-33333333333333----------------3333--|
  --4-44444444444444-6-66666666666666-3-33333333333333-1111-3333-4444-------|
  --2-22222222222222-4-44444444444444-1-11111111111111----------------1111--|
     |______PM______| |______PM______| |______PM______|



CHORUS

  Guitar 1
                                              x2
  --------------------------------------------|----|
  --------------------------------------------|----|
  ------------66666666------------------------|----|
  --44444444--66666666--66666666--8888--6666--|----|
  --44444444--44444444--66666666--8888--6666--|----|
  --22222222------------44444444--6666--4444--|----|

  Guitar 2

  --13----13----13----13----13----13----13h14p13-------|
  -----14----14----14----14----14----14----------16-14-|
  -----------------------------------------------------|
  -----------------------------------------------------|
  -----------------------------------------------------|
  -----------------------------------------------------|
                                                    x2
  -11----11----11----11----14p13----14p13----14p13--|----|
  ----13----13----13----13-------14-------14--------|----|
  --------------------------------------------------|----|
  --------------------------------------------------|----|
  --------------------------------------------------|----|
  --------------------------------------------------|----|

  ('ella, ella, ella')

  ------------------------------------|
  ------------------------------------|
  -----------8-/-10--6--6--6--8-/-10--|
  --4--4--4----------6--6--6----------|
  --4--4--4--6-/-8---4--4--4--6-/-8---|
  --2--2--2---------------------------|

                                                x2
  ----------------------------------------------|----|
  ----------------------------------------------|----|
  -----------10-\-8--------11-\-10-\-8--10-\-8--|----|
  --3--3--3----------8--8-----------------------|----|
  --3--3--3---8-\-6--8--8---9-\--8-\-6---8-\-6--|----|
  --1--1--1----------6--6-----------------------|----|




Verse 2
Chorus




Interlude

  -------------------------------------------------------------|
  -------------------------------------------------------------|
  -4-------6-------4-------10-(x8)--11-(x8)--18-(x8)--17-(x8)--|
  -4---4---6---6---4---4---------------------------------------|
  -2---4---4---6---2---4---8--(x8)--9--(x8)--16-(x8)--15-(x8)--|
  -----2-------4-------2---------------------------------------|




Chorus




Enjoy :) by TomPartyka
Tap to rate this tab
 
# A B C D E F G H I J K L M N O P Q R S T U V W X Y Z