All Time Low - Therapy tab

Artist: All Time Low
Albuum: Nothing Personal
Song: Therapy

This is my first tab, so don't be too critical. This is how I play it. I made this based 
on his live performance in NYC in Decmber of 2009. E-mail me if there's any major 
issues. kkmusic14@yahoo.com

Intro
e--------------------------------------------------------------------------|
B---2h3-2---0-------2h3-2---0-----2----2-----2h3-2---0---------------------|
G--2------2---2---2-------2---2--2-2--2-2---2------2---2-------------------|
D---------------0-------------------------0--------------------------------|
A-0------------------------------------------------------------------------|
E-------------------------------2----0-------------------------------------|

'My ship went down...'
e--------------------------------------------------------------------------|
B---2h3-2------2h3-2-----2----2-----2--------------------------------------|
G--2----------2---------2-2--2-2---2---------------------------------------|
D-----------0--------------------0-----------------------------------------|
A-0------------------------------------------------------------------------|
E----------------------2----0----------------------------------------------|

'A handfull of moments...'
e--------------------------------------------------------------------------|
B---2------2-----2-----2------2--------------------------------------------|
G--2------2-----2-2---2-2----2---------------------------------------------|
D-------0------------------0-----------------------------------------------|
A-0------------------------------------------------------------------------|
E--------------2----0------------------------------------------------------|

'In a city of fools...'
e--------------------------------------------------------------------------|
B---2------2-----2-----2------2--------------------------------------------|
G--2------2-----2-2---2-2----2---------------------------------------------|
D-------0------------------0-----------------------------------------------|
A-0------------------------------------------------------------------------|
E--------------2----0------------------------------------------------------|

'A handfull of moments...'
e--------------------------------------------------------------------------|
B---2------2------2-----2-----2--------------------------------------------|
G--2------2------2-2---2-2---2---------------------------------------------|
D-------0------------------0-----------------------------------------------|
A-0------------------------------------------------------------------------|
E--------------2-----0-----------------------------------------------------|

CHORUS (Basic strum pattern. Let the last chord ring.)
'Give me therapy...'
e-0-------0---------------0-------0-------0---------------0----------------|
B-2-------0-------2-------3-------2-------0-------2-------3----------------|
G-2-------1-------2-------2-------2-------1-------2-------2----------------|
D-2-------2-------0-------0-------2-------2-------0-------0----------------|
A-0-------2-------0-------0-------0-------2-------0-------0----------------|
E-0-------0-------2-------0-------0-------0-------2-------0----------------|

Intro to verse
e---------------------------------------------0----------------------------|
B---2h3-2---0-------2h3-2---0-----2----2-----2-----------------------------|
G--2------2---2---2-------2---2--2----2-----2------------------------------|
D---------------0-------------------------0--------------------------------|
A-0------------------------------------------------------------------------|
E-------------------------------2----0-------------------------------------|

'My lungs gave out...' (Basic strum pattern.)
e-0-------0-----------0---0------------------------------------------------|
B-2-------3-------2---0---3------------------------------------------------|
G-2-------2-------2---1---2------------------------------------------------|
D-2-------0-------0---2---0------------------------------------------------|
A-0-------0-------0---2---0------------------------------------------------|
E-0-------0-------2---0---0------------------------------------------------|

'I'm flesh and bone...' (Same strum pattern as above.)
e-0-------0-----------0---0------------------------------------------------|
B-2-------3-------2---0---3------------------------------------------------|
G-2-------2-------2---1---2------------------------------------------------|
D-2-------0-------0---2---0------------------------------------------------|
A-0-------0-------0---2---0------------------------------------------------|
E-0-------0-------2---0---0------------------------------------------------|

repeat chorus (Don't let the last chord ring.)

BRIDGE (Basic strum pattern)
'Arrogant boy...'
e---------0-------0-------0-----0------------------------------------------|
B-2-------2-------0-------0-----0------------------------------------------|
G-2-------2-------1-------2-----1------------------------------------------|
D-0-------2-------2-------2-----2------------------------------------------|
A-0-------0-------2-------2-----2------------------------------------------|
E-2-------0-------0-------0-----0------------------------------------------|

'Arrogant boy...' (Let last chord ring.)
e---------0---------------0------------------------------------------------|
B-2-------2-------2-------3------------------------------------------------|
G-2-------2-------2-------2------------------------------------------------|
D-0-------2-------0-------0------------------------------------------------|
A-0-------0-------0-------0------------------------------------------------|
E-2-------0-------2-------0------------------------------------------------|

repeat chorus twice (Let the last two chords ring.)

Outro
e-----------------------------------------------------0--------------------|
B---2h3-2---0-------2h3-2---0-----2----2----------2------------------------|
G--2------2---2---2-------2---2--2----2-------2----------------------------|
D---------------0-------------------------0--------------------------------|
A-0------------------------------------------------------------------------|
E-------------------------------2----0-------------------------------------|
Tap to rate this tab
 
# A B C D E F G H I J K L M N O P Q R S T U V W X Y Z