Song name
# A B C D E F G H I J K L M N O P Q R S T U V W X Y Z

All Time Low - Stella tab

Here is stella by all time low.

Intro Guitar 1
E|---------------|--
B|---------------|--
G|---------------|--
D|--3--7--8--10--|--
A|--3--7--8--10--|--
E|--3--7--8--10--|--


Intro Guitar 2
E|--------------------------------------------------|--
B|--------------------------------------------------|--
G|--------------------------------------------------|--
D|--3--3--5--7--------5--7--------7--5--------7--5--|--
A|--------------7--7--------5--5--------3--3--------|--
E|--------------------------------------------------|--


Verse
E|---------------|--
B|---------------|--
G|-----7---------|--
D|--3--7--8--10--|--
A|--3--5--8--10--|--
E|--3-----8--10--|--


Chorus 
E|---------------------------|--
B|---------------------------|--
G|---------------------7-----|--
D|--3--7--8--10--3--7--7--8--|--
A|--3--7--8--10--3--7--5--8--|--
E|--3--7--8--10--3--7-----8--|--

Bridge  (part a)                                      (part b)
E|-----------------------|------------|--
B|-----------------------|------------|--
G|--7--------------------|------------|--
D|--7--10--8/7-3--8/7-3--|--8--3------|--
A|--5--10--8/7-3--8/7-3--|--8--3-(hold)-|--
E|-----10--8/7-3--8/7-3--|--8--3------|--

Order:
intro x2
verse x2
chorus x1
intro x1
verse x2
chorus
bridge x2 (than play part b and hold the F)
chorus until it fades.

There u have it! 
stella wont u take me home? 
Tap to rate this tab
 
# A B C D E F G H I J K L M N O P Q R S T U V W X Y Z