Song name
# A B C D E F G H I J K L M N O P Q R S T U V W X Y Z

All Time Low - Do You Want Me Dead tab

 (Intro)
                                                  F5 A#5 F5 F5
e|-------------------------------------------------------------------------|
B|-------------------------------------------------------------------------|
G|-------10-----10--------------10------10---------------------------------|
D|----10-----10----10--------10------10----10-------x6---------------------|
A|-12-----13----------13--12------13----------13---------------------------|
E|-------------------------------------------------------------------------|

 00:22

e|-------------------------------------------------------------------------|
B|-------------------------------------------------------------------------|
G|-------12-------12-------12------12--------------------------------------|
D|----12-------12-------12------12-----------------------------------------|
A|-14-------14-------13-------13-------------------------------------------|
E|-------------------------------------------------------------------------|

I let it ride on a bad bet
I doubled down on a sinking ship
I need a second to catch my breath
Do you want me?
Or do you want me dead?

 F5 A#5 F5 A#5

I'll give it up for at least a second
I'm getting sick of your bullshit attitude
And how you walk around like you shine brighter, it's killing me
So what do you say?
Do you want me?
Or do you want me dead?

 F5 A#5 F5 A#5

              D5    C5 A#5  F5
I've got my hands up! (yeah, yeah)
        D5          C5             A#5     F5
I'm staring down the barrel of a loaded night (loaded night)
              D5    C5 A#5  F5
I've got my hands up! (yeah, yeah)
G5
So do you want me?
A#5
Or do you want me dead?

 (Riff)
e|-------------------------------------------------------------------------|
B|-------------------------------------------------------------------------|
G|--10-10---9-9---8-8------------------10-10---9-9--8-8--------------------|
D|---x--x---x-x---x-x--7-8--8---3-3-----x--x---x-x--x-x--7-8-8--3-3--------|
A|---8--8---7-7---6-6--7-8-8---3-3------8--8---7-7--6-6--7-8-8--3-3--------|
E|---------------------5-6-6---1-1-----------------------5-6-6--1-1--------|


 (Intro)
I'm sure you're happy in harborside
You're taking shots at the strangers passing by
F5         E5               D#5     D5
There's no such thing as a perfect crime
Don't play that, you've said it enough
'Cause you want me, or you want me dead

F5 A#5 F5 A#5

              D5    C5 A#5  F5
I've got my hands up! (yeah, yeah)
        D5          C5             A#5     F5
I'm staring down the barrel of a loaded night (loaded night)
              D5    C5 A#5  F5
I've got my hands up! (yeah, yeah)
G5
So do you want me?
A#5
Or do you want me dead?

 (Bridge)
e|-------------------------------------------------------------------------|
B|-------------------------------------------------------------------------|
G|--10-10-10--15-14--10-10-10--15-17---10-10-10--15-14--10-10-10--15-17----|
D|---x--x--x--x--x----x--x--x---x--x----x--x--x--x--x----x--x--x---x--x----|
A|---8--8--8--13-12---8--8--8--13-15----8--8--8--13-12---8--8--8--13-15----|
E|-------------------------------------------------------------------------|

Dead set on a get away
I'm dead set on a get away
I'm dead set on a get away
I'm dead set on a get away

 (Intro)
I let it ride on a bad bet
I doubled down on a sinking ship

              D5    C5 A#5  F5
I've got my hands up! (yeah, yeah)
        D5          C5             A#5     F5
I'm staring down the barrel of a loaded night (loaded night)
              D5    C5 A#5  F5
I've got my hands up! (yeah, yeah)
G5
So do you want me?
A#5
What cha say?

              D5    C5 A#5  F5
I've got my hands up! (yeah, yeah)
        D5          C5             A#5     F5
I'm staring down the barrel of a loaded night (loaded night)
              D5    C5 A#5  F5
I've got my hands up! (yeah, yeah)
G5
So do you want me?
A#5
Oh Oh Oh
G5
Do you want me?
A#5                 F5
Do you want me Dead

Tap to rate this tab
 
# A B C D E F G H I J K L M N O P Q R S T U V W X Y Z