All Time Low - Time Bomb Acoustic tab

-------------------------------------------------------------------------------
			     TIME BOMB (ACOUSTIC) - All Time Low.
-------------------------------------------------------------------------------

Tabbed by: mariewong.





Tuning: DADGAd.



INTRO

Guitar 2:

d|--0-----0----0----0--|
A|--0-----0----0----0--|
G|--11----7----9----9--|
D|--9-----5----7----7--|   [x2]
A|--9-----5----7----7--|
D|--9-----5----7----7--|

Guitar 1:

d|-----------------------------------------------------------|
A|-----------------------------------------------------------|
G|--9-/-11---9-/-11----9-/-11---9-/-11----11-/-14----9----7--|
D|--7-/-9----7-/-9-----7-/-9----7-/-9-----9--/-12----7----5--|
A|--7-/-9----7-/-9-----7-/-9----7-/-9-----9--/-12----7----5--|
D|--7-/-9----7-/-9-----7-/-9----7-/-9-----9--/-12----7----5--|

d|-----------------------------------------------------|
A|-----------------------------------------------------|
G|--9-/-11---9-/-11----9-/-11---9-/-11----11-/-7----9--|
D|--7-/-9----7-/-9-----7-/-9----7-/-9-----9--/-5----7--|
A|--7-/-9----7-/-9-----7-/-9----7-/-9-----9--/-5----7--|
D|--7-/-9----7-/-9-----7-/-9----7-/-9-----9--/-5----7--|



VERSE

Guitar 2:

d|--0----0---|
A|--0----0---|
G|--4----11--|
D|--5----0---|   [x2]
A|--5----0---|
D|--5----0---|



PRE-CHORUS

Guitar 2:

d|--0----0----0----0--|
A|--0----0----0----0--|
G|--4----6----4----7--|
D|--5----7----2----5--|
A|--5----7----2----5--|
D|--5----7----2----5--|

Guitar 1:

d|-----------------------------------------------------|
A|-----------------------------------------------------|
G|--------------14------------------------14-----------|
D|--12-12-11-11----12-12-12---12-12-11-11----12-12-12--|
A|-----------------------------------------------------|
D|-----------------------------------------------------|

d|-----------------------------------------------------|
A|-----------------------------------------------------|
G|--------------14------------------------14----14-----|
D|--12-12-11-11----12-12-12---12-12-12-12----12----12--|
A|-----------------------------------------------------|
D|-----------------------------------------------------|

d|-----------------------------------------------------|
A|-----------------------------------------------------|
G|--------------14------------------------14-----------|
D|--12-12-11-11----12-12-12---12-12-11-11----12-12-12--|
A|-----------------------------------------------------|
D|-----------------------------------------------------|

d|---------------|
A|---------------|
G|--14-----------|
D|-----12-12-12--|
A|---------------|
D|---------------|



CHORUS

d|--0-----0----0----0--|
A|--0-----0----0----0--|
G|--11----7----9----6--|
D|--9-----5----7----7--|   [x4]
A|--9-----5----7----7--|
D|--9-----5----7----7--|


d|--0~--|
A|--0~--|
G|--4~--|
D|--5~--|
A|--5~--|
D|--5~--|



VERSE

d|--0----0---|
A|--0----0---|
G|--4----11--|
D|--5----0---|   [x2]
A|--5----0---|
D|--5----0---|



PRE-CHORUS

Guitar 2:

d|--0----0----0----0--|
A|--0----0----0----0--|
G|--4----6----4----7--|
D|--5----7----2----5--|
A|--5----7----2----5--|
D|--5----7----2----5--|

Guitar 1:

d|-----------------------------------------------------|
A|-----------------------------------------------------|
G|--------------14------------------------14-----------|
D|--12-12-11-11----12-12-12---12-12-11-11----12-12-12--|   [x3]
A|-----------------------------------------------------|
D|-----------------------------------------------------|

d|---------------|
A|---------------|
G|--14-----------|
D|-----12-12-12--|
A|---------------|
D|---------------|




CHORUS

d|--0-----0----0----0--|
A|--0-----0----0----0--|
G|--11----7----9----6--|
D|--9-----5----7----7--|   [x4]
A|--9-----5----7----7--|
D|--9-----5----7----7--|




BRIDGE

d|--0----0----0----0--|
A|--0----0----0----0--|
G|--4----6----7----6--|
D|--5----7----9----7--|   [x4]
A|--5----7----9----7--|
D|--5----7----9----7--|

d|--0----0--|
A|--0----0--|
G|--4----7--|
D|--2----5--|
A|--2----5--|
D|--2----5--|



CHORUS

d|--0-----0----0----0--|
A|--0-----0----0----0--|
G|--11----7----9----6--|
D|--9-----5----7----7--|   [x4]
A|--9-----5----7----7--|
D|--9-----5----7----7--|



OUTRO

Guitar 2:

d|--0-----0----0----0--|
A|--0-----0----0----0--|
G|--11----7----9----9--|
D|--9-----5----7----7--| 
A|--9-----5----7----7--|
D|--9-----5----7----7--|

Guitar 1:

d|-----------------------------------------------------------|
A|-----------------------------------------------------------|
G|--9-/-11---9-/-11----9-/-11---9-/-11----11----9----7----6--|
D|--7-/-9----7-/-9-----7-/-9----7-/-9-----9-----7----5----7--|
A|--7-/-9----7-/-9-----7-/-9----7-/-9-----9-----7----5----7--|
D|--7-/-9----7-/-9-----7-/-9----7-/-9-----9-----7----5----7--|





************************************

| /   slide up
| \   slide down
| h   hammer-on
| p   pull-off
| ~   vibrato
| +   harmonic
| x   Mute note
| b   Bend
| pb  Pre-bend
| br  Bend release
| pbr Pre-bend release
| brb Bend release bend

************************************
Tap to rate this tab
 
# A B C D E F G H I J K L M N O P Q R S T U V W X Y Z