All Time Low - Guts tab

 (Intro)

e|-----------------------------------------------------------------------|
B|-------------------------------------------------5---------------------|
G|---------------------------------------------------4-------------------|
D|-----4-5-4---------4-5-4---------4-5-4---------4-----------------------|
A|-5-7-----------5-7-----------5-7-----------5-7-------------------------|
E|-----------------------------------------------------------------------|

We're shooting for the stars, 
desperately reaching for something in the dark.
Pictures of memories, buried in my heart
Lie awake and dream of the endless possibilities, 
catch my breath and go for it.

D5
Take apart 
B5                         A5
everything that's holding me down,
D5
Make a point,
B5
to pick a new direction, 
A5
to make a new connection.

 (CHORUS)
                D5             B5
Is this what it feels like finding out 
                  A5
that I've got the guts to say anything?
     D5                B5
It feels like breaking out,
               A5
when I can give up my reputation.
E5       F#5        G5                   A5
Finally I can see honestly I've got the guts to say anything.

e|-----------------------------------------------------------------------|
B|-------------------------------------------------5---------------------|
G|---------------------------------------------------4-------------------|
D|-----4-5-4---------4-5-4---------4-5-4---------4-----------------------|
A|-5-7-----------5-7-----------5-7-----------5-7-------------------------|
E|-----------------------------------------------------------------------|

Bold enough to fall flat on my face,
When I walk as they crawl,
Slowing down is just a waste of time to let go,
Tapping my fingers to the rhythm of the metronome,
counting opportunities

D5
Take apart,
B5                         A5
a gravity that's holding me down,
D5
Make a point,
B5
To find the resolution,
A5
To be my own solution

 (CHORUS)
                D5             B5
Is this what it feels like finding out 
                  A5
that I've got the guts to say anything?
     D5                B5
It feels like breaking out,
               A5
when I can give up my reputation.
E5       F#5        G5                   A5
Finally I can see honestly I've got the guts to say anything.

B5
Let me go down,
Let me go, let me go down alone,
G5
Let me go down, just let me go down
D5                                                   B5
If I'm gonna go down, then just let me go, let me go down, let me go down
      A5
Just let me go down, let me go

 (SOLO)
D5 - B5 - A5 x2

 (CHORUS)
                      B5
It feels like finding out 
                  A5
that I've got the guts to say anything?
     D5                B5
It feels like breaking out,
               A5
when I can give up my reputation.
E5       F#5        G5                   A5
Finally I can see honestly I've got the guts to say anything.
E5       F#5        G5                   A5
Finally I can see, that honestly I've got the guts to say anything.
Tap to rate this tab
 
# A B C D E F G H I J K L M N O P Q R S T U V W X Y Z