Song name
# A B C D E F G H I J K L M N O P Q R S T U V W X Y Z

All Time Low - Return The Favour tab

Return the Favour - All Time Low
Tabbed by: Raz664
Email: raz664@hotmail.co.uk

Part 1 (Acoustic)

e|-----|-------------------|----------------------|
B|-----|-------------------|----------------------|
G|--6--|--6--7--9--12--10--|--10--9--7--5h7p5--4--|
D|-----|-------------------|----------------------|
A|-----|-------------------|----------------------|
E|--5--|--5-----9------10--|--10-----5---------3--|

e|------------------------------------------------|
B|------------------------------------------------|
G|---4--5--7--10----9----------------------10-----|
D|--------------------10----------------12--------|
A|------------------------10---------11-----------|
E|---3-----7-----------------8----12--------------|

Part 2 (Electric)

e|-----|--------------|-----------|-----------------------|
B|-----|--------------|-----------|-----------------------|
G|-----|--------------|-----------|-----------------------|
D|-----|-----------7--|-----------|------0h2--5--5--9--9--|
A|--7--|------7h8--5--|--8--7--5--|----2------3--3--7--7--|
E|--5--|--5h8---------|--------3--|--3--------------0--0--|

e|-----|--------------|-----------|-----------------------|
B|-----|--------------|-----------|-----------------------|
G|-----|--------------|-----------|-----------------------|
D|-----|-----------7--|-----------|------0h2--------------|
A|--7--|------7h8--5--|--8--7--5--|----2------3--3--2--2--|
E|--5--|--5h8---------|--------3--|--3--------1--1--0--0--|


I will complete the song shortly :)
Tap to rate this tab
 
# A B C D E F G H I J K L M N O P Q R S T U V W X Y Z