All Time Low - Guts tab

-------------------------------------------------------------------------------
			     GUTS - All Time Low
-------------------------------------------------------------------------------
Tabbed by: Jamie Vincent
Email: jamie.vincent@gmail.com

Tuning:

Intro / Verse 1

Guitar 1 (0.00-0.40)

e|-----------------------------------------------------0------------------------|
B|---------------------------------------------------5---5----------------------|
G|---------0-------------0-------------0-----------7----------------------------|
D|-------4---4---------4---4---------4---4-------7------------------------------|
A|-----5-------------5-------------5--------------------------------------------|
E|---3-------------3-------------7----------------------------------------------|

Guitar 2 (0.23- 0.40)

e|---------------------------------------------------------------------------|
B|---------------------------------------------------------------------------|
G|---------------------------------------------------------------------------|
D|---------------------------------------------------------------------------|
A|---------------------------------------------------------------------------|
E|--3-3-3-3-3-3-3-3-3-3-3-3-3-3-3-3-7-7-7-7-7-7-7-7-5-5-5-5-5-5-5-5----------| (x2)
    . . . . . . . . . . . . . . . . . . . . . . . . . . . . . . . .

Guitar Just before the chorus (0.40-0.44)

e|---------------------------------------------------------------------------|
B|---------------------------------------------------------------------------|
G|---------0----------0----------0-------------------------------------------|
D|-------4----------4----------4---------------------------------------------|
A|-----5----------5----------5-----------------------------------------------|
E|---7----------7----------7-------------------------------------------------|

Chorus

Guitar 1 (0.42-1.00)

e|----------------------------------------------------------------------------------|
B|----------------------------------------------------------------------------------|
G|--------<<---------------------ONLY REPEAT THIS BIT---------------------->>-------|
D|--7-7-7 ||-5-5-5-5-5-5-5-5-5-5-5-5-5-5-5-5-9-9-9-9-9-9-9-9-7-7-7-7-7-7-7-7--------|
A|--7-7-7 ||-5-5-5-5-5-5-5-5-5-5-5-5-5-5-5-5-9-9-9-9-9-9-9-9-7-7-7-7-7-7-7-7--------|
E|--5-5-5 ||-3-3-3-3-3-3-3-3-3-3-3-3-3-3-3-3-7-7-7-7-7-7-7-7-5-5-5-5-5-5-5-5--------|
| (x2)

Guitar 2 (0.42-1.00)

e|-------------------------------------------------------------------------------|
B|-------------------------------------------------------------------------------|
G|--14----14-----------------11----11-------------------9----9-------------------|
D|-----12----12--11--12-(x4)-----12----12--11--12-(x2)----12---12--11--12-(x2----|
A|-------------------------------------------------------------------------------|
E|-------------------------------------------------------------------------------|  (x2)

Guitars 1 + 2 (1.00-1.07)

e|---------------------------------------------------------------------------|
B|---------------------------------------------------------------------------|
G|---------------------------------------------------------------------------|
D|--2-2-2-2-2-2-4-4-4-4-4-4-5-5-5-5-5-5-7------------------------------------|
A|--2-2-2-2-2-2-4-4-4-4-4-4-5-5-5-5-5-5-7------------------------------------|
E|--0-0-0-0-0-0-2-2-2-2-2-2-3-3-3-3-3-3-5------------------------------------|

Verse 2

Repeat Intro / Verse 1 (1.07-1.42)

Chorus

Repeat Chorus

Breakdown (2.08-2.28)

Guitar 1 (really difficult to hear this once the rest of the band come in, but i think 
thats what i'm hearing,
not sure about how many times to play each part just play it as you hear it)
e|-----------------------------------------------------------------------------------------------|
B|-----------------------------------------------------------------------------------------------|
G|-----------------------------------------------------------------------------------------------|
D|----------------------------------------------5--4--5--4-(x8)----------------------------------|
A|------------------5------------7--5--7--5--(x8)--------------7--5--7--5-(x4)--5--4--5--4-(x4)--|
E|---7--5--7--5--7-----7--5-(x8)-----------------------------------------------------------------|
     .  .  .  .  .  .  .  .      .  .  .  .     .  .  .  .     .  .  .  .       .  .  .  .

Guitar 2 (listen for timing)

e|---------------------------------------------------------------------------|
B|---------------------------------------------------------------------------|
G|---------------------------------------------------------------------------|
D|---9-9-------2---------5-5-5-5-5-5-5-5-7-7-7-7-7-7-7-7---------------------|
A|---9-9-------2---------5-5-5-5-5-5-5-5-7-7-7-7-7-7-7-7---------------------|
E|---7-7-------0---------3-3-3-3-3-3-3-3-5-5-5-5-5-5-5-5---------------------|
                         . . . . . . . . . . . . . . . .

Solo (2.28-3.00)

The solo is just the same riff as in the chorus, but with no vocals on top

After the solo the band cuts out, so only vocals and it come back in the the B5 and the
riff misses out the first part.

e|---------------------------------------------------------------------------|
B|---------------------------------------------------------------------------|
G|---------------------------------------------------------------------------|
D|------------------------------9-9-9-9-9-9-9-9-7-7-7-7-7-7-7-7--------------|
A|------------------------------9-9-9-9-9-9-9-9-7-7-7-7-7-7-7-7--------------|
E|------------------------------7-7-7-7-7-7-7-7-5-5-5-5-5-5-5-5--------------|


e|-------------------------------------------------------------------------------|
B|-------------------------------------------------------------------------------|
G|---------------------------11----11-------------------9----9-------------------|
D|-------------------------------12----12--11--12-(x2)----12---12--11--12-(x2----|
A|-------------------------------------------------------------------------------|
E|-------------------------------------------------------------------------------|

Like that :)

Outro (3.00-3.17)

Guitars 1 + 2

e|---------------------------------------------------------------------------|
B|---------------------------------------------------------------------------|
G|---------------------------------------------------------------------------|
D|--2-2-2-2-2-2-2-2-4-4-4-4-4-4-4-4-5-5-5-5-5-5-5-5-7-7-7-7-7-7-7-7----------|
A|--2-2-2-2-2-2-2-2-4-4-4-4-4-4-4-4-5-5-5-5-5-5-5-5-7-7-7-7-7-7-7-7----------|
E|--0-0-0-0-0-0-0-0-2-2-2-2-2-2-2-2-3-3-3-3-3-3-3-3-5-5-5-5-5-5-5-5----------| (x2)

The second time round don't play the last A5 just end on it.

Hope it's alright, any queries or mistakes e-mail me

There may be a few mistakes, it's my first tab.
Tap to rate this tab
 
# A B C D E F G H I J K L M N O P Q R S T U V W X Y Z