All Time Low - Under A Paper Moon tab

Have Mercy, this is my first tab, but it was really easy to
figure out just by listening through it a few times, i didnt
inculde the rhythms just because its easy to figure out if
you listen to the song a few times through. Enjoy :)

Intro:

------------------|
------------------|
--7--6--7--6------|
--7--7--7--7------|
--5--4--5--4------|
------------------|

Verse:
Palm muted the first 2 times through, just listen to figure
out when not to mute on the final 2 go rounds.
-------------------|
-------------------|
--7--5--10--6------|
--7--5--10--6------|
--5--3--8---4------|
-------------------|

End the 4th time through on,
------|
------|
--2---|
--2---|
--0---|
------|

Instead of.
------|
------|
--6---|
--6---|
--4---|
------|

Chorus:
----------------------------------|
----------------------------------|
---3-----5--2--7--5--3-----2------|
---3--2--5--2--7--5--3--2--2------|
---1--2--3--0--5--3--1--2--0------|
------0-----------------0---------|

----------------------------------|
----------------------------------|
---3-----5--3--7--5--3-----5------|
---3--2--5--3--7--5--3--2--5------|
---1--2--3--1--5--3--1--2--3------|
------0-----------------0---------|

Then its just the verse again,
Followed by a 2nd chorus, but on the 2nd round of
the chorus play,

-----------------------------------|
-----------------------------------|
---3-----5--6--7--5--3-----5-------|
---3--2--5--6--7--5--3--2--5-------|
---1--2--3--4--5--3--1--2--3-------|
------0-----------------0----------|

Bridge: Just listen to rhythm to figure out when to
palm mute and dead note
-----
-----
--0--
--0--
--0--
-----

Re-Intro:
-------------------------|
-------------------------|
---7--5--3--2------------|
---7--5--3--2------------|
---5--3--1--0------------|
-------------------------|

Play the chorus again,

And the Outro: this is it when he screams
'this real life, just isnt right lets fabricate"
for the last time and you play the open/dead notes
after that...

------------------|
------------------|
---3-----2----0---|
---3--2--2----0---|
---1--2--0----0---|
------0-----------|

soo yeah, thats it. enjoy :)
Tap to rate this tab
 
# A B C D E F G H I J K L M N O P Q R S T U V W X Y Z