All Time Low - Under A Paper Moon tab

Hi,
This is my first tab.
For correction or if you have the tab of the lead guitar, email-me at pushandrock 
(at) gmail (dot) com

Iko, PushAndRock.



Rythm Guitar.

Intro:

|--------|
|--------|
|--6--5--|
|--6--6--|
|--4--3--|
|--------|

Verse

|--------------|
|--------------|
|--6--4--9--5--|
|--6--4--9--6--|
|--4--2--7--3--|
|--------------|

Chorus

|--------------------------------|
|--------------------------------|
|--2-----4-5-6-4-----2-----4--4--|
|--2--2--4-6-6-4-----2--2--4--4--|
|--0--2--2-3-4-2-----0--2--2--2--|
|-----0-----------------0--------|

Bridge:

|-----|
|-----|
|--6--|
|--6--|
|--4--|
|-----|

Bridge2:

|--------------|
|--------------|
|--2-----------|
|--2--2--6--6--|
|--0--2--6--6--|
|-----0--4--4--|




Intro x 2
Verse x 4
Intro x 2
Chorus x 2
Intro
Verse x 4
Intro x 2
Chorus x 2
Bridge x 2
Verse x 2
Chorus x 2
Bridge2
Bridge
Tap to rate this tab
 
# A B C D E F G H I J K L M N O P Q R S T U V W X Y Z