Song name
# A B C D E F G H I J K L M N O P Q R S T U V W X Y Z

All Time Low - Poison tab

Artist: All Time Low
Song: Poison
Album: Nothing Personal
Tabbed by: gustavoaraujo999@hotmail.com

[Verse 1]
e|-----------------------|---------------------|
B|-[x2]------------------|--[x2]---------------|
G|---------9-------------|---------7-----------|
D|----10-------10----10--|---10--------10---10-| [x3]
A|-12----12-------12-----|-8----8---------8----|
D|-----------------------|---------------------|

[Chorus]
e|-------------------------------------|
B|-------------------------------------|
G|-------------------------------------|
D|-10101010-33333333-77777777-33333333-|
A|-10101010-33333333-77777777-33333333-|
D|-10101010-33333333-77777777-33333333-|

e|-----------------------------------------|
B|-----------------------------------------|
G|-----------------------------------------|
D|-77777777-10101010-00000000-3333-5555-7~-|
A|-77777777-10101010-00000000-3333-5555-7~-|
D|-77777777-10101010-00000000-3333-5555-7~-|

[Interlude]
e|-----------------------|---------------------|
B|-[x2]------------------|--[x2]---------------|
G|---------9-------------|---------7-----------|
D|----10-------10----10--|---10--------10---10-|
A|-12----12-------12-----|-8----8---------8----|
D|-----------------------|---------------------|

[Verse 2]
e|------------------------|----------------------|
B|------------------------|----------------------|
G|-------------9----------|-----------7----------|
D|----10----10---10----10-|---10---10---10---10--| [x2]
A|-12----12---------12----|-8----8---------8-----|
D|------------------------|----------------------|
PM  .  .  .  . . .  .  .   .  . . .  . .  .  .

e|-------------------------------------------------------------------|
B|-------------------------------------------------------------------|
G|-------------------------------------------------------------------|
D|-7--7--7--7---3--3--3--3---7--7--7--7---3--3--3--3--5~--3333333333-|
A|-7--7--7--7---3--3--3--3---7--7--7--7---3--3--3--3--5~--3333333333-|
D|-7--7--7--7---3--3--3--3---7--7--7--7---3--3--3--3--5~--3333333333-|
PM                                                        ..........

[Chorus]
e|-------------------------------------|
B|-------------------------------------|
G|-------------------------------------|
D|-10101010-33333333-77777777-33333333-|
A|-10101010-33333333-77777777-33333333-|
D|-10101010-33333333-77777777-33333333-|

e|-------------------------------------------|
B|-------------------------------------------|
G|-------------------------------------------|
D|-77777777-10101010-00000000-3333-5555-7777-|
A|-77777777-10101010-00000000-3333-5555-7777-|
D|-77777777-10101010-00000000-3333-5555-7777-|

[Bridge]
e|-----------------------------|--------------------------|
B|--(natural harmonic)---------|--------------------------|
G|---|-------------------------|--------------------------|
D|-(7*)-7-7-7-333-10101010-55--|-7-5-7-333-10101010-1212--|
A|------7-5-7-333-10101010-55--|-7-5-7-333-10101010-1212--|
D|------7-5-7-333-10101010-55--|-7-5-7-333-10101010-1212--|

e|------------------------|-------------------------------|
B|------------------------|-------------------------------|
G|------------------------|-------------------------------|
D|-7-7-7-333-10101010-55--|-7-5-7-333-10101010-12---------|
A|-7-5-7-333-10101010-55--|-7-5-7-333-10101010-12---------|
D|-7-5-7-333-10101010-55--|-7-5-7-333-10101010-12-10-5-7\-|

e|---------------------------------------------|
B|---------------------------------------------|
G|---------------------------------------------|
D|---------------------------10----------------|
A|-12-10-12-10-12---12-10-12----12---12-10-12--|
D|---------------------------------------------|
 
e|---------------------------------------------------|
B|---------------------------------------------------|
G|---------------------------------------------------|
D|--------------------------------------10----10-----|
A|-12-10-12-10-12---12-10-12-10-12---12----12----12--|
D|---------------------------------------------------|
 
[Chorus]
e|-----------------------------------------|
B|-----------------------------------------|
G|-----------------------------------------|
D|-10---x101010-33333333-77777777-33333333-|
A|-10---x101010-33333333-77777777-33333333-|
D|-10---x101010-33333333-77777777-33333333-|

e|-----------------------------------------|
B|-----------------------------------------|
G|-----------------------------------------|
D|-77777777-10101010-00000000-3333-5555-7~-|
A|-77777777-10101010-00000000-3333-5555-7~-|
D|-77777777-10101010-00000000-3333-5555-7~-|

[Outro]
e|-----------------------------|--------------------------|
B|--(natural harmonic)---------|--------------------------|
G|---|-------------------------|--------------------------|
D|-(7*)-7-7-7-333-10101010-55--|-7-5-7-333-10101010-1212--|
A|------7-5-7-333-10101010-55--|-7-5-7-333-10101010-1212--|
D|------7-5-7-333-10101010-55--|-7-5-7-333-10101010-1212--|

e|------------------------|--------------------------------|
B|------------------------|--------------------------------|
G|------------------------|--------------------------------|
D|-7-7-7-333-10101010-55--|-7-5-7-333-10101010-1212-7-5-7\-|
A|-7-5-7-333-10101010-55--|-7-5-7-333-10101010-1212-7-5-7\-|
D|-7-5-7-333-10101010-55--|-7-5-7-333-10101010-1212-7-5-7\-|
Tap to rate this tab
 
# A B C D E F G H I J K L M N O P Q R S T U V W X Y Z