All Time Low - Return The Favor tab

Artist: All Time Low
Song: Return The Favor
Album: Dirty Work		
Tabbed by: gustavoaraujo999@hotmail.com

[Verse 1]
e|-------------------------------------------------------|
B|-------------------------------------------------------|
G|-------------------------------------------------------|
D|----------------------------------------10-10--2-------| [x2]
A|----------7-8-5----8p7-------------7-8--10-10--2--7\---|
D|-7~--7-10--------------10-9----7-10-----10-10--2-------|

[Pre-chorus]
e|---------------------|
B|---------------------|
G|---------------------|
D|-33333333-22222222---|
A|-33333333-22222222---|
D|-33333333-22222222---|
PM ........ ........
 
[Acoustic Chorus]
    Am    Dm      G      C  E
e|--5------5------3-----------------|
B|--5------6------3-----------------|
G|--5------7------4------5----------|
D|--7------7------5------5--2--[x2]-|
A|--7------5------5------3--2-------|
D|--------------------------2-------|

[Verse 2]
e|------------------------------------------------------|
B|------------------------------------------------------|
G|------------------------------------------------------|
D|----------------------------------------10-10--2------| [x2]
A|----------7-8-5----8p7-------------7-8--10-10--2--7\--|
D|-7~--7-10--------------10-9----7-10-----10-10--2------|
 |                                                     |
e|------------------------------------------------------|
B|------------------------------------------------------|
G|--------------7-7-7-7-7-7-----------------------------|
D|-7-7-7-7-7-7--7-7-7-7-7-7--5-5-5-5-5-5--10-10--2------|
A|-7-7-7-7-7-7--5-5-5-5-5-5--5-5-5-5-5-5--10-10--2--7\--|
D|-7-7-7-7-7-7---------------5-5-5-5-5-5--10-10--2------|
PM   . . . . .    . . . . .    . . . . . 

[Pre-chorus]
e|---------------------|
B|---------------------|
G|---------------------|
D|-33333333-22222222---|
A|-33333333-22222222---|
D|-33333333-22222222---|
   ........ ........

[Chorus]
e|---------------------------------------------|
B|---------------------------------------------|
G|-----------77777777--------------------------|
D|-77777777--77777777--55555555--1010-2222-----| [x2]
A|-77777777--55555555--55555555--1010-2222-----|
D|-77777777------------55555555--1010-2222-----|
 
e|-------------12----|-------------13-----|-------------15-----|
B|-------13----------|-------13-----------|-------13-----------|
G|-12-14----14----14-|-12-14----14----14--|-12-14----14----14--|
D|-------------------|--------------------|--------------------|
A|-------------------|--------------------|--------------------|
D|-------------------|--------------------|--------------------|
 
[Bridge]
e|-(not a guitar part, I know)-------|
B|-----------------------------------|
G|-----------------------------------|
D|----9-10-----9-10----9-10----9-10--|
A|-12-------10-------9-------8-------|
D|-----------------------------------|

e|-------------------------------|
B|-------------------------------|
G|-------------------------------|
D|---~---------------------22222-|
A|-~-----------------------22222-|
D|-7~--5~--12~--3~--2~-14~-22222-|

[Chorus x2]
e|---------------------------------------------|
B|---------------------------------------------|
G|-----------77777777--------------------------|
D|-77777777--77777777--55555555--1010-2222-----|
A|-77777777--55555555--55555555--1010-2222-----|
D|-77777777------------55555555--1010-2222-----|

e|---------------------------------------------|
B|---------------------------------------------|
G|------------77777777-------------------------|
D|-----77777--77777777--55555555--1010-2222----|
A|-12\-77777--55555555--55555555--1010-2222----|
D|-----77777------------55555555--1010-2222----|

e|---------------------------------------------|
B|---------------------------------------------|
G|-----------77777777--------------------------|
D|-77777777--77777777--55555555--1010-2222-----|
A|-77777777--55555555--55555555--1010-2222-----|
D|-77777777------------55555555--1010-2222-----|

e|---------------------------------------------|
B|---------------------------------------------|
G|-----------77777777--------------------------|
D|-77777777--77777777--55555555--1010-2222-----|
A|-77777777--55555555--55555555--1010-2222-----|
D|-77777777------------55555555--1010-2222-----|
Tap to rate this tab
 
# A B C D E F G H I J K L M N O P Q R S T U V W X Y Z