Song name
# A B C D E F G H I J K L M N O P Q R S T U V W X Y Z

All Time Low - Return The Favor tab

Tuning: Standard
Capo: none


Intro:
e--------------------------------------------------------------------------|
B----------------------------------------------------6--5-----------6------|
G--6-6--7--9--12--10---10-9-7--5h7p5--4- -4--5--7---------5----7-----------|
D----7-------------------------------------5------------------5------------|
A--------------------------------------------------------------------------|
E--------------------------------------------------------------------------|

Verse 1:
e--------------------------------------------------------------------|
B--------------------------------------------------------------------|
G--2-----------------------------------------------------------------|   x2
D--2--------------7---10--9----------------3-5--5--4-----------------|
A--0-----------7--5---8---7---5----2--3--5---3--3--2--7--------------|
E------5--7--8---------------- 3-------------------------------------|

Pre Chorus:
e----------------------------|
B----------------------------|
G----------------------------|
D------------------2---------|
A----3-------------2---------|
E----1-------------0---------|


Chorus:
e ---0-----5----3------3---2--7---------|
B ---1-----6----3------3---2--7---------|
G ---2-----7----3------5---4--9---------|  x2
D ---2-----7----5------5---4--9---------|
A ---0-----5----5------3---2--7---------|
E---------------3-----------------------|


Verse 2:

e--------------------------------------------------------------------|
B--------------------------------------------------------------------|
G--2-----------------------------------------------------------------|   x2
D--2--------------7---10--9----------------3-5--5--4-----------------|
A--0-----------7--5---8---7---5----2--3--5---3--3--2--7--------------|
E------5--7--8---------------- 3-------------------------------------|

Pre Chorus:
e----------------------------|
B----------------------------|
G----------------------------|
D------------------2---------|
A----3-------------2---------|
E----1-------------0---------|


Chorus:
e --------------------------------------|
B --------------------------------------|
G ---2-----7-----------5---4--9---------|  x2
D ---2-----7----5------5---4--9---------|
A ---0-----5----5------3---2--7---------|
E---------------3-----------------------|


Bridge:
e-------------|
B-------------|
G--2---5--7---|
D--2---5--7---|  x3
A--0---3--5---|
E-------------|

e----------------------------|
B----------------------------|
G-----------2--7---9---------|
D-----------2--7---9---------|
A-----------0--5---7---------|
E----------------------------|


Chorus:   x2  <-- repeat chorus twice!
e --------------------------------------|
B --------------------------------------|
G ---2-----7-----------5---4--9---------|  x2
D ---2-----7----5------5---4--9---------|
A ---0-----5----5------3---2--7---------|
E---------------3-----------------------|


                                                            end on Am
Tap to rate this tab
# A B C D E F G H I J K L M N O P Q R S T U V W X Y Z