Song name
# A B C D E F G H I J K L M N O P Q R S T U V W X Y Z

All Time Low - Remembering Sunday Acoustic tab

Tabbed directly from Alex playing live it is 100% correct and this is
the version I play link http://www.youtube.com/watch?v=b9cK6ywLooE&fmt=18
Capo 1st fret he has his on the second but I think his guitar is down a
half step
Im only going to put up the chords in the order they are played the
strumming pattern is down up down up repeated and hard down strokes on
the fifth stroke but the pattern doesnt matter so much if you just follow
the song no one can tell the difference
An * means he only strums once
An ^ means when he plays that part he only plays down strokes and only plays
the main strings of the chord while he pulses his hand to mute it 

intro
e|-0-0-3-0-|ring the last note out at 
B|-0-0-3-2-|the end of the intro for the pause
G|-5-0-0-0-|
D|-5-2-2-2-|
A|-3-2-3-0-|
E|-x-x-x-x-|

verse 1
e|-------0-0-0-0-0-0-0-0-0-0-0-0-|the little part in 
B|-0---3-3-0-3-2-3-5-0-2-3-5-0-2-|the beginning is optional
G|---2---0-0-0-0-0-0-0-0-0-0-0-0-|he doesnt play it
D|-------2-2-2-2-2-4-2-2-2-4-2-2-|every time
A|-------3-2-3-0-3-5-2-0-3-5-2-0-|
E|-------x-x-x-x-x-x-x-x-x-x-x-x-|
                         ^ ^ ^ *

chorus play twice
e|-3-3-0-0-3-|on the * he pauses 
B|-3-3-2-3-3-|
G|-0-0-0-0-0-|
D|-0-2-2-2-2-|
A|-2-3-0-3-3-|
E|-3-x-x-x-x-|
         *

verse 2 play twice
e|-0-0-0-0-0-|
B|-3-5-0-0-0-|
G|-0-0-0-0-0-|
D|-2-4-5-2-2-|
A|-3-5-7-4-3-|
E|-x-x-x-x-x-|
   ^ ^ ^ * *
chorus same as before

bridge
e|-0-0-3-0-3-3-3-2-2-3-3-0-0-3-3-0-0-0-0-0-0-|
B|-0-3-3-2-3-3-3-3-3-3-3-2-3-3-3-2-3-3-5-3-5-|
G|-0-0-0-0-0-0-0-2-2-0-0-0-0-0-0-0-0-0-0-0-0-|
D|-2-2-0-2-2-2-0-0-0-0-2-2-2-0-2-2-2-2-4-2-4-|
A|-2-3-2-0-2-3-2-x-x-2-3-0-3-2-3-0-3-3-5-3-5-|
E|-x-x-3-x-x-x-3-x-x-3-x-x-x-3-x-x-x-x-x-x-x-|
         *     ^ ^         *       * ^ ^ ^ * 
for more help check the video it should be pretty straight forward any
changes just let me know
Tap to rate this tab
 
# A B C D E F G H I J K L M N O P Q R S T U V W X Y Z