Song name
# A B C D E F G H I J K L M N O P Q R S T U V W X Y Z

All Time Low - Get Down On Your Knees And Tell Me You Love Me tab

regular tuning, i suggest a little distortion and a phaser pedal

intro/verse:
e|----------------------------------------------|
b|----1-4-1------------------3------------------|
g|-------------2s8-5-7------3--3------0s7--3----|
d|----------------------------------------------|       x5
a|--3------3p0------------1-----1---------------|
E|--------------------------------3-------------|


e|----------------------------------------------|
b|----1-4-1------------------3------------------|
g|-------------2s8-5-7------3--3----------------|
d|----------------------------------------------|      
a|--3------3p0------------1-----1----3333333----|
E|--------------------------------3--3333333----|

chorus:
e|------------------------------|
b|-5----------------------------|
g|-5-x8-------------------------|
d|-3------5-------7-------3-----|
a|--------5-x8----7-x8----3-x8--|
E|--------3-------5-------1-----|

verse 2

e|----------------------------------------------|
b|----1-4-1------------------3------------------|
g|-------------2s8-5-7------3--3------0s7--3----|
d|----------------------------------------------|       x2
a|--3------3p0------------1-----1---------------|
E|--------------------------------3-------------|

e|----------------------------------------------|
b|----1-4-1------------------3------------------|
g|-------------2s8-5-7------3--3----------------|
d|-----------------------------------5-5--3-3---|       
a|--3------3p0------------1-----1----5-5--3-3---|
E|-----------------------------------3-3--1-1---|

e|----------------------------------------------|
b|----1-4-1------------------3------------------|
g|-------------2s8-5-7------3--3------0s7--3----|
d|----------------------------------------------|       x2
a|--3------3p0------------1-----1---------------|
E|--------------------------------3-------------|

(chorus)

solo:

e|------------------------------------------------------------|
b|------------------------------------------------------------|
g|--5-5-5-5s12(fast pick)---12b14b12-10---10--12-10-----------|
d|---------------------------------------------13p12--13p12---|
a|----------------------------------------------------------13|
E|------------------------------------------------------------|

e|----------------------------------------------------------------|
b|-----------------------------13-13-13-13-15-15-15-15-16-16-16-16|
g|-12b14b12-10-13---15-15-15-15-----------------------------------|
d|----------------------------------------------------------------|
a|----------------------------------------------------------------|
E|----------------------------------------------------------------|

e|--------------------------------------------------|
b|--------------15-15-15-15-16-16-16-16-18-18-18-18-|
g|--15-15-15-15-------------------------------------|
d|--------------------------------------------------|
a|--------------------------------------------------|
E|--------------------------------------------------|

e|------------------------------------------------|
b|-------------15-15-15-15-16-16-16-16------------|
g|--15-15-15-15------------------------15-15-15-15|
d|------------------------------------------------|
a|------------------------------------------------|
E|------------------------------------------------|

e|-------------------------------------------------|
b|-------------15-15-15-15-16-16-16-16-18-18-18-18-|
g|--15-15-15-15------------------------------------|
d|-------------------------------------------------|
a|-------------------------------------------------|
E|-------------------------------------------------|

e|---19-19-19-19-20-20-20-20------------------------|
b|--------------------------20-20-20-20-18-18-18-18-|
g|--------------------------------------------------|
d|--------------------------------------------------|
a|--------------------------------------------------|
E|--------------------------------------------------|

("Did you fake it just to break another stanger in your bed")
e|----------------------------------------------------------------|
b|----------------------------------------------------------------|
g|----------------------------------------------------------------|
d|-----------------------------5--------------5-5-5-5-------------|
a|-----------------------------5--------------5-5-5-5-------------|
E|-----------------------------3--------------3-3-3-3-(pick shred)|

(chorus) x 2

outro

e|--------------------------------------|
b|----1-4-1------------------3----------|
g|-------------2s8-5-7------3--3--------|
d|--------------------------------------|      
a|--3------3p0------------1-----1-------|
E|--------------------------------3-----|



Tab written by Andrew Myers
Tap to rate this tab
# A B C D E F G H I J K L M N O P Q R S T U V W X Y Z