Song name
# A B C D E F G H I J K L M N O P Q R S T U V W X Y Z

All Time Low - Heroes tab

----------------------------------------------------------------------------
                              All Time Low - Heroes
----------------------------------------------------------------------------

Tabbed by: Lao123
Email: the_oister@hotmail.com

Feel free to use this in your own full song tab, but only if you ask first :P

It should be 100% correct, it's not very hard to figure out anyway


Guitar 1:

e---------------------------------|
B---------------------------------|
G---------------------------------|
D--2-2-3-3--3-0-0-2-2--2-2-2-0-0--|  x3
A--3-3-3-3--3-3-3-3-3--3-3-3-3-3--|
D---------------------------------|

e-----------------------|
B-----------------------|
G------------------5\---|
D--2-2-3-3--3-0-0--5\---|
A--3-3-3-3--3-3-3--3\---|
D-----------------------|


Guitar 2:

Come in with drums

e-------------------------------------------------------------|
B-------------------------------------------------------------|
G--9-9-10-10--10-7-7-9-9--9-9-9-7-7--9-9-10-10--10-7-7--------|
D-------------------------------------------------------10\---|
A-------------------------------------------------------10\---|
D-------------------------------------------------------10\---|


There you go! Please rate/comment!

Tap to rate this tab
# A B C D E F G H I J K L M N O P Q R S T U V W X Y Z