Song name
# A B C D E F G H I J K L M N O P Q R S T U V W X Y Z

All Time Low - Remembering Sundaylive tab

Capo on 2nd(these tabs are relative to the capo)
intro
eb|-0-0000-0000-0000-000-0-0000-0000-0000-000-x-xxxx-xxxx-xxxx-xxx-|
Bb|-0-0000-0000-0000-000-0-0000-0000-0000-000-3-3333-3333-3333-333-|
Gb|-0-0000-0000-0000-000-0-0000-0000-0000-000-0-0000-0000-0000-000-|
Db|-2-2222-2222-2222-222-2-2222-2222-2222-222-2-2222-2222-2222-222-|
Ab|-3-3333-3333-3333-333-2-2222-2222-2222-222-3-3333-3333-3333-333-|
Eb|-x-xxxx-xxxx-xxxx-xxx-x-xxxx-xxxx-xxxx-xxx-x-xxxx-xxxx-xxxx-xxx-|

intro continued
eb|-x-xxxx-xxxx--|
Bb|-2-2222-2222~-|
Gb|-0-0000-0000~-|
Db|-2-2222-2222~-|
Ab|-0-0000-0000~-|
Eb|-x-xxxx-xxxx--|

verse 1 
eb|------x-xxxx-xxxx-xxxx-xxx-x-xxxx-xxxx-xxxx-xxx-|
Bb|------3-3333-3333-3333-333-2-2222-2222-2222-222-|
Gb|------0-0000-0000-0000-000-0-0000-0000-0000-000-|
Db|------2-2222-2222-2222-222-2-2222-2222-2222-222-|
Ab|0-2-3-3-3333-3333-3333-333-0-0000-0000-0000-000-|
Eb|------x-xxxx-xxxx-xxxx-xxx-x-xxxx-xxxx-xxxx-xxx-|

eb|-x-xxxx-xxxx-xxxx-xxx-x-xxxx-xxxx-xxxx-xxx-|
Bb|-3-3333-3333-3333-333-2-2222-2222-2222-222-|
Gb|-0-0000-0000-0000-000-0-0000-0000-0000-000-|
Db|-2-2222-2222-2222-222-2-2222-2222-2222-222-|
Ab|-3-3333-3333-3333-333-0-0000-0000-0000-000-|
Eb|-x-xxxx-xxxx-xxxx-xxx-x-xxxx-xxxx-xxxx-xxx-|

eb|-x-xxxx-xxxx-xxxx-xxx-x-xxxx-xxxx-xxxx-xxx-x-xxxx-xxxx-xxxx-xxx-|
Bb|-3-3333-3333-3333-333-5-5555-5555-5555-555-8-8888-8888-8888-888-|
Gb|-0-0000-0000-0000-000-0-0000-0000-0000-000-0-0000-0000-0000-000-|
Db|-2-2222-2222-2222-222-4-4444-4444-4444-444-7-7777-7777-7777-777-|
Ab|-3-3333-3333-3333-333-5-5555-5555-5555-555-5-5555-5555-5555-555-|
Eb|-x-xxxx-xxxx-xxxx-xxx-x-xxxx-xxxx-xxxx-xxx-x-xxxx-xxxx-xxxx-xxx-|

eb|-x--|
Bb|-2~-|
Gb|-0~-|
Db|-2~-|
Ab|-0~-|
Eb|-x--|

verse 1 part 3
eb|-x-x-x-x-x-x-x-x-x-x-x-x-x-x-x-x-x-x-x-x-x-x-x-x-|
Bb|-3-3-3-3-3-3-3-3-3-3-3-3-5-5-5-5-5-5-5-5-5-5-5-5-|
Gb|-0-0-0-0-0-0-0-0-0-0-0-0-0-0-0-0-0-0-0-0-0-0-0-0-|
Db|-2-2-2-2-2-2-2-2-2-2-2-2-4-4-4-4-4-4-4-4-4-4-4-4-|
Ab|-3-3-3-3-3-3-3-3-3-3-3-3-5-5-5-5-5-5-5-5-5-5-5-5-|
Eb|-x-x-x-x-x-x-x-x-x-x-x-x-x-x-x-x-x-x-x-x-x-x-x-x-|
    . . . . . . . . . . . . . . . . . . . . . . . .

eb|-x-x-x-x-x-x-x-x-x-x-x-x-x--|
Bb|-8-8-8-8-8-8-8-8-8-8-8-8-2~-|
Gb|-0-0-0-0-0-0-0-0-0-0-0-0-0~-|
Db|-5-5-5-5-5-5-5-5-5-5-5-5-2~-|
Ab|-7-7-7-7-7-7-7-7-7-7-7-7-0~-|
Eb|-x-x-x-x-x-x-x-x-x-x-x-x-x--|
    . . . . . . . . . . . . 

chorus 
eb|-3-3333-3333-3333-333-x-xxxx-xxxx-xxxx-xxx-|
Bb|-0-0000-0000-0000-000-3-3333-3333-3333-333-|
Gb|-0-0000-0000-0000-000-0-0000-0000-0000-000-|
Db|-0-0000-0000-0000-000-2-2222-2222-2222-222-|
Ab|-2-2222-2222-2222-222-3-3333-3333-3333-333-|
Eb|-3-3333-3333-3333-333-x-xxxx-xxxx-xxxx-xxx-|

eb|-x-xxxx-xxxx-xxxx-xxx-x---------------xxxx-|
Bb|-2-2222-2222-2222-222-3~--------------3333-|
Gb|-0-0000-0000-0000-000-0~--------------0000-|
Db|-2-2222-2222-2222-222-2~--------------2222-|
Ab|-0-0000-0000-0000-000-3~--------------3333-|
Eb|-x-xxxx-xxxx-xxxx-xxx-x---------------xxxx-|

eb|-3-3333-3333-3333-333-x-xxxx-xxxx-xxxx-xxx-|
Bb|-0-0000-0000-0000-000-3-3333-3333-3333-333-|
Gb|-0-0000-0000-0000-000-0-0000-0000-0000-000-|
Db|-0-0000-0000-0000-000-2-2222-2222-2222-222-|
Ab|-2-2222-2222-2222-222-3-3333-3333-3333-333-|
Eb|-3-3333-3333-3333-333-x-xxxx-xxxx-xxxx-xxx-|

eb|-x-xxxx-xxxx-xxxx-xxx-x--|
Bb|-2-2222-2222-2222-222-3~-|
Gb|-0-0000-0000-0000-000-0~-|
Db|-2-2222-2222-2222-222-2~-|
Ab|-0-0000-0000-0000-000-3~-|
Eb|-x-xxxx-xxxx-xxxx-xxx-x--|

verse 2 part 1
eb|-x-x-x-x-x-x-x-x-x-x-x-x-x-x-x-x-x-x-x-x-x-x-x-x-|
Bb|-3-3-3-3-3-3-3-3-3-3-3-3-5-5-5-5-5-5-5-5-5-5-5-5-|
Gb|-0-0-0-0-0-0-0-0-0-0-0-0-0-0-0-0-0-0-0-0-0-0-0-0-|
Db|-2-2-2-2-2-2-2-2-2-2-2-2-4-4-4-4-4-4-4-4-4-4-4-4-|
Ab|-3-3-3-3-3-3-3-3-3-3-3-3-5-5-5-5-5-5-5-5-5-5-5-5-|
Eb|-x-x-x-x-x-x-x-x-x-x-x-x-x-x-x-x-x-x-x-x-x-x-x-x-|
    . . . . . . . . . . . . . . . . . . . . . . . .

eb|-x-x-x-x-x-x-x-x-x-x-x-x-x-x-x-x-x-x-x-x-x-x-x-x-|
Bb|-8-8-8-8-8-8-8-8-8-8-8-8-8-8-8-8-8-8-8-8-8-8-8-8-|
Gb|-0-0-0-0-0-0-0-0-0-0-0-0-0-0-0-0-0-0-0-0-0-0-0-0-|
Db|-5-5-5-5-5-5-5-5-5-5-5-5-5-5-5-5-5-5-5-5-5-5-5-5-|
Ab|-7-7-7-7-7-7-7-7-7-7-7-7-7-7-7-7-7-7-7-7-7-7-7-7-|
Eb|-x-x-x-x-x-x-x-x-x-x-x-x-x-x-x-x-x-x-x-x-x-x-x-x-|
    . . . . . . . . . . . . . . . . . . . . . . . . 

eb|-x-x-x-x-x-x-x-x-x-x-x-x-x-x-x-x-x-x-x-x-x-x-x-x-|
Bb|-3-3-3-3-3-3-3-3-3-3-3-3-5-5-5-5-5-5-5-5-5-5-5-5-|
Gb|-0-0-0-0-0-0-0-0-0-0-0-0-0-0-0-0-0-0-0-0-0-0-0-0-|
Db|-2-2-2-2-2-2-2-2-2-2-2-2-4-4-4-4-4-4-4-4-4-4-4-4-|
Ab|-3-3-3-3-3-3-3-3-3-3-3-3-5-5-5-5-5-5-5-5-5-5-5-5-|
Eb|-x-x-x-x-x-x-x-x-x-x-x-x-x-x-x-x-x-x-x-x-x-x-x-x-|
    . . . . . . . . . . . . . . . . . . . . . . . .

eb|-x-x-x-x-x-x-x-x-x-x-x-x-x-|
Bb|-0-0-0-0-0-0-0-0-0-0-0-0-2~|
Gb|-0-0-0-0-0-0-0-0-0-0-0-0-0~|
Db|-2-2-2-2-2-2-2-2-2-2-2-2-2~|
Ab|-2-2-2-2-2-2-2-2-2-2-2-2-0~|
Eb|-0-0-0-0-0-0-0-0-0-0-0-0-x-|
    . . . . . . . . . . . . 

chorus 
eb|-3-3333-3333-3333-333-x-xxxx-xxxx-xxxx-xxx-|
Bb|-0-0000-0000-0000-000-3-3333-3333-3333-333-|
Gb|-0-0000-0000-0000-000-0-0000-0000-0000-000-|
Db|-0-0000-0000-0000-000-2-2222-2222-2222-222-|
Ab|-2-2222-2222-2222-222-3-3333-3333-3333-333-|
Eb|-3-3333-3333-3333-333-x-xxxx-xxxx-xxxx-xxx-|

eb|-x-xxxx-xxxx-xxxx-xxx-x---------------xxxx-|
Bb|-2-2222-2222-2222-222-3~--------------3333-|
Gb|-0-0000-0000-0000-000-0~--------------0000-|
Db|-2-2222-2222-2222-222-2~--------------2222-|
Ab|-0-0000-0000-0000-000-3~--------------3333-|
Eb|-x-xxxx-xxxx-xxxx-xxx-x---------------xxxx-|

eb|-3-3333-3333-3333-333-x-xxxx-xxxx-xxxx-xxx-|
Bb|-0-0000-0000-0000-000-3-3333-3333-3333-333-|
Gb|-0-0000-0000-0000-000-0-0000-0000-0000-000-|
Db|-0-0000-0000-0000-000-2-2222-2222-2222-222-|
Ab|-2-2222-2222-2222-222-3-3333-3333-3333-333-|
Eb|-3-3333-3333-3333-333-x-xxxx-xxxx-xxxx-xxx-|

eb|-x-xxxx-xxxx-xxxx-xxx-x-----------xxxx-xxx-|
Bb|-2-2222-2222-2222-222-3~----------3333-333-|
Gb|-0-0000-0000-0000-000-0~----------0000-000-|
Db|-2-2222-2222-2222-222-2~----------2222-222-|
Ab|-0-0000-0000-0000-000-3~----------3333-333-|
Eb|-x-xxxx-xxxx-xxxx-xxx-x-----------xxxx-xxx-|


bridge
eb|-x-xxxx-xxxx-xxxx-xxx-x-xxxx-xxxx-xxxx-xxx-3-3333-3333-3333-333-|
Bb|-0-0000-0000-0000-000-3-3333-3333-3333-333-0-0000-0000-0000-000-|
Gb|-0-0000-0000-0000-000-0-0000-0000-0000-000-0-0000-0000-0000-000-|
Db|-2-2222-2222-2222-222-2-2222-2222-2222-222-0-0000-0000-0000-000-|
Ab|-2-2222-2222-2222-222-3-3333-3333-3333-333-2-2222-2222-2222-222-|
Eb|-x-xxxx-xxxx-xxxx-xxx-x-xxxx-xxxx-xxxx-xxx-3-3333-3333-3333-333-|

eb|-2~-|----3~-|----3~-|
Bb|-3~-|----3~-|----3~-|
Gb|-2~-|----0~-|---0~--|
Db|-0~-|---2~--|--2~---|
Ab|-x--|--2~---|-3~----|
Eb|-x--|-0~----|-------|

eb|----3-333-3333-333-2-2222-2222-2222-222-|
Bb|----3-333-3333-333-3-3333-3333-3333-333-|
Gb|----0-000-0000-000-2-2222-2222-2222-222-|
Db|---0~-----0000-000-0-0000-0000-0000-000-|
Ab|--2~------2222-222-x-xxxx-xxxx-xxxx-xxx-|
Eb|-3~-------3333-333-x-xxxx-xxxx-xxxx-xxx-|

Juliet Simms:

eb|-3-3333-3333-3333-333-x-xxxx-xxxx-xxxx-xxx-|
Bb|-0-0000-0000-0000-000-3-3333-3333-3333-333-|
Gb|-0-0000-0000-0000-000-0-0000-0000-0000-000-|
Db|-0-0000-0000-0000-000-2-2222-2222-2222-222-|
Ab|-2-2222-2222-2222-222-3-3333-3333-3333-333-|
Eb|-3-3333-3333-3333-333-x-xxxx-xxxx-xxxx-xxx-|

eb|-x-xxxx-xxxx-xxxx-xxx-x------p--------xxx--|
Bb|-2-2222-2222-2222-222-3~-----a--------333~-|
Gb|-0-0000-0000-0000-000-0~-----u--------000~-|
Db|-2-2222-2222-2222-222-2~-----s--------222~-|
Ab|-0-0000-0000-0000-000-3~-----e--------333~-|
Eb|-x-xxxx-xxxx-xxxx-xxx-x---------------xxx--|

eb|-3-3333-3333-3333-3-3-3-x-xxxx-xxxx-xxxx-xxx-|
Bb|-0-0000-0000-0000-0-0-0-3-3333-3333-3333-333-|
Gb|-0-0000-0000-0000-0-0-0-0-0000-0000-0000-000-|
Db|-0-0000-0000-0000-0-0-0-2-2222-2222-2222-222-|
Ab|-2-2222-2222-2222-2-2-2-3-3333-3333-3333-333-|
Eb|-3-3333-3333-3333-3-3-3-x-xxxx-xxxx-xxxx-xxx-|

eb|-x-xxxx-xxxx-xxxx-xxx-x-xxxx-xxxx-xxxx-xxx--|
Bb|-2-2222-2222-2222-222-3-3333-3333-2222-222~-|
Gb|-0-0000-0000-0000-000-0-0000-0000-0000-000~-|
Db|-2-2222-2222-2222-222-2-2222-2222-2222-222~-|
Ab|-0-0000-0000-0000-000-3-3333-3333-0000-000~-|
Eb|-x-xxxx-xxxx-xxxx-xxx-x-xxxx-xxxx-xxxx-xxx--|

Outro

eb|-x-x-x-x-x-x-x-x-x-x-x-x-x-x-x-x-x-x-x-x-x-x-x-x-|
Bb|-3-3-3-3-3-3-3-3-3-3-3-3-5-5-5-5-5-5-5-5-5-5-5-5-|
Gb|-0-0-0-0-0-0-0-0-0-0-0-0-0-0-0-0-0-0-0-0-0-0-0-0-|
Db|-2-2-2-2-2-2-2-2-2-2-2-2-4-4-4-4-4-4-4-4-4-4-4-4-|
Ab|-3-3-3-3-3-3-3-3-3-3-3-3-5-5-5-5-5-5-5-5-5-5-5-5-|
Eb|-x-x-x-x-x-x-x-x-x-x-x-x-x-x-x-x-x-x-x-x-x-x-x-x-|
    . . . . . . . . . . . . . . . . . . . . . . . .

eb|-x-x-x-x-x-x-x-x-x-x-x-x-x-|
Bb|-3-3-3-3-3-3-3-3-3-3-3-3-2-|
Gb|-0-0-0-0-0-0-0-0-0-0-0-0-0-|
Db|-2-2-2-2-2-2-2-2-2-2-2-2-2-|
Ab|-3-3-3-3-3-3-3-3-3-3-3-3-0-|
Eb|-x-x-x-x-x-x-x-x-x-x-x-x-x-|
    . . . . . . . . . . . .


Please rate/comment
This is my first tab so sorry if there are mistakes in it
for comments or suggestions
txt me:09228150014
email me: wilburchad_policarpio_014@yahoo.com
pm me in fb: http://www.facebook.com/teddy.bur.policarpio
Tap to rate this tab
 
# A B C D E F G H I J K L M N O P Q R S T U V W X Y Z