Song name
# A B C D E F G H I J K L M N O P Q R S T U V W X Y Z

All Time Low - Return The Favor tab

Thanks to Raz664 who helped me with the intro and the verse, the rest i did it by 
ear because all the tabs that i found were wrong. hope you enjoy, rate please :)

INTRO (acoustic)

e|-----|-------------------|----------------------|
B|-----|-------------------|----------------------|
G|--6--|--6--7--9--12--10--|--10--9--7--5h7p5--4--|
D|-----|-------------------|----------------------|
A|-----|-------------------|----------------------|
E|--5--|--5-----9------10--|--10-----5---------3--|

e|------------------------------------------------|
B|------------------------------------------------|
G|---4--5--7--10----9----------------------10-9---|
D|--------------------10----------------12--------|
A|------------------------10---------11-----------|
E|---3-----7-----------------8----12--------------|



VERSE (electric)

e|-----|--------------|-----------|-----------------------|
B|-----|--------------|-----------|-----------------------|
G|-----|--------------|-----------|-----------------------|
D|-----|-----------7--|-----------|------0h2--5--5--9--9--|
A|--7--|------7h8--5--|--8--7--5--|----2------3--3--7--7--|
E|--5--|--5h8---------|--------3--|--3--------------0--0--|

e|-----|--------------|-----------|-----------------------|
B|-----|--------------|-----------|-----------------------|
G|-----|--------------|-----------|-----------------------|
D|-----|-----------7--|-----------|------0h2--------------|
A|--7--|------7h8--5--|--8--7--5--|----2------3--3--2--2--|
E|--5--|--5h8---------|--------3--|--3--------1--1--0--0--|



PRE-CHORUS

e|--------------------|
B|--------------------|
G|--------------------|
D|---3333333322222222-|
A|---3333333322222222-|
E|---1111111100000000-|
Pm.  ииииииииииииииии



CHORUS (acoustic)(you can figure out the patter, it's so easy)

e|--0--|--5--|--3--|-----0--|
B|--1--|--6--|--3--|-----0--|
G|--2--|--7--|--4--|--5--1--|
D|--2--|--7--|--5--|--5--2--|
A|--0--|--5--|--5--|--3--2--|
E|-----|-----|--3--|-----0--|

e|--0--|--5--|--3--|-----0--|
B|--2--|--6--|--3--|-----0--|
G|--2--|--7--|--4--|--5--1--|
D|--2--|--7--|--5--|--5--2--|
A|--0--|--5--|--5--|--3--2--|
E|-----|-----|--3--|-----0--|


VERSE (electric)

e|-----|--------------|-----------|-----------------------|
B|-----|--------------|-----------|-----------------------|
G|-----|--------------|-----------|-----------------------|
D|-----|-----------7--|-----------|------0h2--5--5--9--9--|
A|--7--|------7h8--5--|--8--7--5--|----2------3--3--7--7--|
E|--5--|--5h8---------|--------3--|--3--------------0--0--|

e|-----|--------------|-----------|-----------------------|
B|-----|--------------|-----------|-----------------------|
G|-----|--------------|-----------|-----------------------|
D|-----|-----------7--|-----------|------0h2--------------|
A|--7--|------7h8--5--|--8--7--5--|----2------3--3--2--2--|
E|--5--|--5h8---------|--------3--|--3--------1--1--0--0--|



PRE-CHORUS

e|--------------------|
B|--------------------|
G|--------------------|
D|---3333333322222222-|
A|---3333333322222222-|
E|---1111111100000000-|
Pm.  ииииииииииииииии



CHORUS (electric)

e|-----|-----|-----|--------|
B|-----|-----|-----|--------|
G|--2--|--7--|-----|--5-----|
D|--2--|--7--|--5--|--5--2--|
A|--0--|--5--|--5--|--3--2--|
E|-----|-----|--3--|-----0--|



BRIDGE 
e|-----|-----|-----|-----|
B|-----|-----|-----|-----|
G|--2--|--5--|--7--|-----|
D|--2--|--5--|--7--|--3--|  x3
A|--0--|--3--|--5--|--3--|
E|-----|-----|-----|--1--|

e|-----|-----|-----|
B|-----|-----|-----|
G|-----|-----|-----|
D|--2--|--1--|--2--|
A|--2--|--2--|--2--|
E|--0--|--0--|--0--|



CHORUS (electric)

e|-----|-----|-----|--------|
B|-----|-----|-----|--------|
G|--2--|--7--|-----|--5-----|
D|--2--|--7--|--5--|--5--2--|
A|--0--|--5--|--5--|--3--2--|
E|-----|-----|--3--|-----0--|



OUTRO (this part is played by a piano, but you can play this chords over)
e|--0--|--5--|--3--|--3--0--|
B|--1--|--6--|--3--|--5--0--|
G|--2--|--7--|--4--|--5--1--|
D|--2--|--7--|--5--|--5--2--|
A|--0--|--5--|--5--|--3--2--|
E|-----|-----|--3--|-----0--|

e|--0~--|
B|--1~--|
G|--2~--|
D|--2~--|
A|--0~--|
E|------|


don't forget to rate! :)
Tap to rate this tab
 
# A B C D E F G H I J K L M N O P Q R S T U V W X Y Z