Song name
# A B C D E F G H I J K L M N O P Q R S T U V W X Y Z

All Time Low - Sick Little Games tab

-------------------------------------------------------------------------------
SICK LITTLE GAMES - All Time Low
-------------------------------------------------------------------------------
Tabbed by: abridge678

Tuning: Standard
Intro lead
e|---------------------------------------------------------------------------|
B|---------------------------------------------------------------------------|
G|11----14----------11---14----------11----14----------12-11---12-11---------|
D|--12----14~-12-14---12---14~-12-14----12---14~-12-14------12------12-14-12-|
A|---------------------------------------------------------------------------|
E|---------------------------------------------------------------------------|

e|---------------------------------------------------------------------------|
B|---------------------------------------------------------------------------| let  
G|11----14----------11---14----------11----14----------12-11---12-11---------| final  
D|--12----14~-12-14---12---14~-12-14----12---14~-12-14------12------12-14-12~| note 
A|---------------------------------------------------------------------------| ring
E|---------------------------------------------------------------------------| out

Intro Rhythm 
e|---------------------------------------------------------------------------| play
B|---------------------------------------------------------------------------| this
G|----77777777--44444444------------22222222---------------------------------| twice
D|----77777777--44444444--22222222--22222222---------------------------------|
A|////55555555--22222222--22222222--00000000---------------------------------|
E|------------------------00000000-------------------------------------------|

Verse 
e|---------------------------------------------------------------------------| play
B|---------------------------------------------------------------------------| this
G|----77777777--44444444------------22222222---------------------------------| twice
D|----77777777--44444444--22222222--22222222---------------------------------|
A|----55555555--22222222--22222222--00000000---------------------------------|
E|------------------------00000000-------------------------------------------|
      ........  ........  ........  ........     
Lead play this on 2nd line of verse
e|--------5~---------5~---------7~-------------------------------------------|
B|------3----------3----------5-------------10~------------------------------|
G|----2----------2----------7-----------7-9----------------------------------|
D|--0--------------------7-----------9---------------------------------------|
A|-------------2-------------------------------------------------------------|
E|---------------------------------------------------------------------------|

Pre-Chorus
e|---------------------------------------------------------------------------|
B|---------------------------------------------------------------------------|
G|----44444444--22222222-----------------------------------------------------|
D|----44444444--22222222--55555555--55555555---------------------------------|
A|----22222222--00000000--55555555--55555555---------------------------------|
E|------------------------33333333--33333333---------------------------------|
      ........  ........  ........  ........

Chorus
e|---------------------------------------------------------------------------|
B|---------------------------------------------------------------------------|
G|----77777777--22222222--44444444-------------------------------------------|
D|----77777777--22222222--44444444--55555555---------------------------------|
A|----55555555--00000000--22222222--55555555---------------------------------|
E|----------------------------------33333333---------------------------------|

e|---------------------------------------------------------------------------|
B|---------------------------------------------------------------------------|
G|----77777777--22222222--44444444-------------------------------------------|
D|----77777777--22222222--44444444--5~~--------------------------------------|
A|----55555555--00000000--22222222--5~~--------------------------------------|
E|----------------------------------3~~--------------------------------------|

Repeat intro, verse, pre-chorus twice and then chorus

Bridge Rhythm 
e|--------------------------------------------------------------------------------|
B|--------------------------------------------------------------------------------|
G|------------44444444--77777777--66666666------------44444444--2222222222222222--|
D|--55555555--44444444--77777777--77777777--55555555--44444444--2222222222222222--|
A|--55555555--22222222--55555555--44444444--55555555--22222222--0000000000000000--|
E|--33333333--------------------------------33333333------------------------------|
    ........  ........  ........  ........  ........  ........  ............
Bridge Lead
e|------12--------------12------------| Play this 8 times
B|--15------15--14--15------15--------|
G|------------------------------14----|
D|------------------------------------|
A|------------------------------------|
E|------------------------------------|

Acoustic chorus
e|--2~--------0~--------2~--------3~-----------------------------------------|
B|--3~--------2~--------3~--------3~-----------------------------------------|
G|--2~--------2~--------4~--------0~-----------------------------------------|
D|--0~--------2~--------4~--------0~-----------------------------------------|
A|------------0~--------2~--------2~-----------------------------------------|
E|--------------------------------3~-----------------------------------------|

Final Chorus
e|---------------------------------------------------------------------------|
B|---------------------------------------------------------------------------|
G|----77777777--22222222--44444444-------------------------------------------|
D|----77777777--22222222--44444444--55555555---------------------------------|
A|----55555555--00000000--22222222--55555555---------------------------------|
E|----------------------------------33333333---------------------------------|

e|---------------------------------------------------------------------------|
B|---------------------------------------------------------------------------|
G|----77777777--66666666--44444444-------------------------------------------|
D|----77777777--77777777--44444444--55555555---------------------------------|
A|----55555555--44444444--22222222--55555555---------------------------------|
E|----------------------------------33333333---------------------------------|

e|---------------------------------------------------------------------------|
B|---------------------------------------------------------------------------|
G|----77777777--66666666--44444444-------------------------------------------|
D|----77777777--77777777--44444444--5~---------------------------------------|
A|----55555555--44444444--22222222--5~---------------------------------------|
E|----------------------------------3~---------------------------------------|

In the last two lines there is vocals singing the tune from the intro, but it 
sounds good if you just play the intro riff over it, also thats how they 
play it live. So if you want you can play this in the last two lines
e|---------------------------------------------------------------------------|
B|---------------------------------------------------------------------------|
G|11----14----------11---14----------11----14----------12-11---12-11---------|
D|--12----14~-12-14---12---14~-12-14----12---14~-12-14------12------12-14-12-|
A|---------------------------------------------------------------------------|
E|---------------------------------------------------------------------------|

e|---------------------------------------------------------------------------|
B|---------------------------------------------------------------------------|
G|11----14----------11---14----------11----14--------------------------------|
D|--12----14~-12-14---12---14~-12-14----12---14~-12-14--12~------------------|
A|---------------------------------------------------------------------------|
E|---------------------------------------------------------------------------|

Hope this is okay. I believe it is 100% accurate and pretty much covers 
both guitars for the entire song. If you think it needs any changes feel
 free to pm me them. Thank you
************************************

| /   slide up
| \   slide down
| h   hammer-on
| p   pull-off
| ~   vibrato
| +   harmonic
| x   Mute note
| b   Bend
| pb  Pre-bend
| br  Bend release
| pbr Pre-bend release
| brb Bend release bend

************************************
Tap to rate this tab
# A B C D E F G H I J K L M N O P Q R S T U V W X Y Z