Song name
# A B C D E F G H I J K L M N O P Q R S T U V W X Y Z

All Time Low - Weightless tab

-Verse 1-

e|------------------------------------------------------------------------|
B|------------------------------------------------------------------------|
G|------------------------------------------------------------------------|
D|------------------------------------------------------------------------|
A|------------------------------------------------------------------------|
D|-5x16----7x16-----0x16------5x32----7x16------0x16-----5x16-------------|

e|------------------------------------------------------------------------|
B|------------------------------------------------------------------------|
G|------------------------------------------------------------------------|
D|--55--------------------------------00----------------------------------|
A|--55--------------------------------00----------------------------------|
D|--5555555555555555-7777777777777777-0000000000000000-5555555555555555---|



e|---------------------------------------------------------------------|
B|---------------------------------------------------------------------|
G|---------------------------------------------------------------------|
D|--5555------------------------------0000000000000000000000000--------|
A|--5555------------------------------0000000000000000000000000--------|
D|--5555555555555555-7777777777777777-0000000000000000000000000--------|




-Chorus 1-

e|--------------------------------------------------------------------------|
B|--------------------------------------------------------------------------|
G|--------------------------------------------------------------------------|
D|-5-55-55-5-0-00-0-00-7-77-7-77--7-9-/12-4---------------------------------|
A|-5-55-55-5-0-00-0-00-7-77-7-77--7-9-/12-4---------------------------------|
D|-5-55-55-5-0-00-0-00-7-77-7-77--7-9-/12-4---------------------------------|

e|------------------------------------------------------------------------|
B|------------------------------------------------------------------------|
G|------------------------------------------------------------------------|
D|-5-55-55-5-0-00-0-00-7-77-7-77-7-77-7-77--------------------------------|
A|-5-55-55-5-0-00-0-00-7-77-7-77-7-77-7-77--------------------------------|
D|-5-55-55-5-0-00-0-00-7-77-7-77-7-77-7-77--------------------------------|


e|------------------------------------------------------------------------|
B|------------------------------------------------------------------------|
G|------------------------------------------------------------------------|
D|-9-99-99-9-7-77-7-77-5-55-5-55-5-55-5-55--------------------------------|
A|-9-99-99-9-7-77-7-77-5-55-5-55-5-55-5-55--------------------------------|
D|-9-99-99-9-7-77-7-77-5-55-5-55-5-55-5-55--------------------------------|


e|--------------------------------------------|---------------------------|
B|--------------------------------------------|---------------------------|
G|--------------------------------------------|---------------------------|
D|--5-55--5-55---5-55-5-55--7-\---------------|-0-000-0---0-0-000-0-------|
A|--5-55--5-55---5-55-5-55--7-\---------------|-0-000-0---0-0-000-0-------|
D|--5-55--5-55---5-55-5-55--7-\---------------|-0-000-0---0-0-000-0-------|






-Verse 2-

e|------------------------------------------------------------------------|
B|------------------------------------------------------------------------|
G|------------------------------------------------------------------------|
D|------------------------------------------------------------------------|
A|------------------------------------------------------------------------|
D|-5x16----7x16-----0x16------5x32-------7x16--------0x16-----5x16--------|


e|------------------------------------------------------------------------|
B|------------------------------------------------------------------------|
G|------------------------------------------------------------------------|
D|-5555555555555555-7777777777777777-000000000000000000000000-------------|
A|-5555555555555555-7777777777777777-000000000000000000000000-------------|
D|-5555555555555555-7777777777777777-000000000000000000000000-------------|



-Chorus 2-

e|--------------------------------------------------------------------------|
B|--------------------------------------------------------------------------|
G|--------------------------------------------------------------------------|
D|-5-55-55-5-0-00-0-00-7-77-7-77--7-9-/12-4---------------------------------|
A|-5-55-55-5-0-00-0-00-7-77-7-77--7-9-/12-4---------------------------------|
D|-5-55-55-5-0-00-0-00-7-77-7-77--7-9-/12-4---------------------------------|

e|------------------------------------------------------------------------|
B|------------------------------------------------------------------------|
G|------------------------------------------------------------------------|
D|-5-55-55-5-0-00-0-00-7-77-7-77-7-77-7-77--------------------------------|
A|-5-55-55-5-0-00-0-00-7-77-7-77-7-77-7-77--------------------------------|
D|-5-55-55-5-0-00-0-00-7-77-7-77-7-77-7-77--------------------------------|


e|------------------------------------------------------------------------|
B|------------------------------------------------------------------------|
G|------------------------------------------------------------------------|
D|-9-99-99-9-7-77-7-77-5-55-5-55-5-55-5-55--------------------------------|
A|-9-99-99-9-7-77-7-77-5-55-5-55-5-55-5-55--------------------------------|
D|-9-99-99-9-7-77-7-77-5-55-5-55-5-55-5-55--------------------------------|


e|--------------------------------------------|---------------------------|
B|--------------------------------------------|---------------------------|
G|--------------------------------------------|---------------------------|
D|--5-55--5-55---5-55-5-55--7-\---------------|-0-000-0---0-0-000-0-------|
A|--5-55--5-55---5-55-5-55--7-\---------------|-0-000-0---0-0-000-0-------|
D|--5-55--5-55---5-55-5-55--7-\---------------|-0-000-0---0-0-000-0-------|



e|---------------------------|
B|---------------------------|
G|---------------------------|
D|-0-000-0---0-0-00-0--------|
A|-0-000-0---0-0-00-0--------|
D|-0-000-0---0-0-00-0--------|




-Bridge-

"This could be all I've waited for..."

e|------------------------------------------------------------------------|
B|------------------------------------------------------------------------|
G|------------------------------------------------------------------------|
D|-2222222222222222-5555555555555555---0-000-0----0-0-000-0---------------|
A|-2222222222222222-5555555555555555---0-000-0----0-0-000-0---------------|
D|-2222222222222222-5555555555555555---0-000-0----0-0-000-0---------------|


"And this could be everything; I don't want to dream anymore..."

e|------------------------------------------------------------------------|
B|------------------------------------------------------------------------|
G|------------------------------------------------------------------------|
D|-2222222222222222-5555555555555555---7-7-7-7-7-7-7-7-77-77-77-77-7777---|
A|-2222222222222222-5555555555555555---7-7-7-7-7-7-7-7-77-77-77-77-7777---|
D|-2222222222222222-5555555555555555---7-7-7-7-7-7-7-7-77-77-77-77-7777---|




Maybe it's not my weekend. but it's gonna be my year, and I've been going crazy, 
I'm stuck in here...
e|---------------------------|
B|---------------------------|
G|---------------------------|
D|-0---h2-/--5---0-----------|
A|-0---h2-/--5---0-----------|
D|-0---h2-/--5---0-----------|



-Chorus 3-

e|--------------------------------------------------------------------------|
B|--------------------------------------------------------------------------|
G|--------------------------------------------------------------------------|
D|-5-55-55-5-0-00-0-00-7-77-7-77--7-9-/12-4---------------------------------|
A|-5-55-55-5-0-00-0-00-7-77-7-77--7-9-/12-4---------------------------------|
D|-5-55-55-5-0-00-0-00-7-77-7-77--7-9-/12-4---------------------------------|

e|------------------------------------------------------------------------|
B|------------------------------------------------------------------------|
G|------------------------------------------------------------------------|
D|-5-55-55-5-0-00-0-00-7-77-7-77-7-77-7-77--------------------------------|
A|-5-55-55-5-0-00-0-00-7-77-7-77-7-77-7-77--------------------------------|
D|-5-55-55-5-0-00-0-00-7-77-7-77-7-77-7-77--------------------------------|


e|------------------------------------------------------------------------|
B|------------------------------------------------------------------------|
G|-7-77--7-77--6-66--6-66--4-44--4-44-------------------------------------|
D|-7-77--7-77--6-66--6-66--4-44--4-44-------------------------------------|
A|-5-55--5-55--4-44--4-44--2-22--2-22-------------------------------------|
D|------------------------------------------------------------------------|


e|--------------------------------------------|---------------------------|
B|--------------------------------------------|---------------------------|
G|--------------------------------------------|---------------------------|
D|--0-00--0-00---5-55-5-55--7-\---------------|-0-000-0---0-0-000-0-------|
A|--0-00--0-00---5-55-5-55--7-\---------------|-0-000-0---0-0-000-0-------|
D|--0-00--0-00---5-55-5-55--7-\---------------|-0-000-0---0-0-000-0-------|



-Ending-

e|---------------------------|
B|---------------------------|
G|---------------------------|
D|-0-000-0---0-0-00----------|
A|-0-000-0---0-0-00----------|
D|-0-000-0---0-0-00----------|
Tap to rate this tab
# A B C D E F G H I J K L M N O P Q R S T U V W X Y Z