Song name
# A B C D E F G H I J K L M N O P Q R S T U V W X Y Z

All Time Low - The Reckless And The Brave tab

This song is (half stap down) and (drop D)

D#  -----0--0--0---0--0---0--0--0---0--0---0--0--0---0-0--0--0--0-----|
A#  -----0--0--0---0--0---0--0--0---0--0---0--0--0---0-0--0--0--0-----|
F#  -----7--7--7---9--0---0--0--0---0--0---0--0--0---0-0--0--0--0-----|
C#  -----7--7--7---9--9---7--7--7---9--4---5--5--5---0-0--4--5--7-----|
G#  -----5--5--5---7--9---7--7--7---9--4---5--5--5---0-0--4--5--7-----|
C#  -----0--0--0---0--9---7--7--7---9--4---5--5--5---0-0--4--5--7-----|


D#  ------------------------------------------------------------------|
A#  --7-5-7-7-7-5-7-8-7-5---5-3-5-5-5-3-5-7-5-3---3-2-3-3-3-2-3-7-8-5-|
F#  ------------------------------------------------------------------|
C#  ------------------------------------------------------------------|
G#  ------------------------------------------------------------------|
C#  ------------------------------------------------------------------|


D#  -----0--0--0---0--0---0--0--0---0--0---0--0--0---0-0--0--0--0-----|
A#  -----0--0--0---0--0---0--0--0---0--0---0--0--0---0-0--0--0--0-----|
F#  -----7--7--7---9--0---0--0--0---0--0---0--0--0---0-0--0--0--0-----|
C#  -----7--7--7---9--9---7--7--7---9--4---5--5--5---0-0--4--5--7-----|
G#  -----5--5--5---7--9---7--7--7---9--4---5--5--5---0-0--4--5--7-----|
C#  -----0--0--0---0--9---7--7--7---9--4---5--5--5---0-0--4--5--7-----|


D#  ------------------------------------------------------------------|
A#  -----3-10-8-7--3-10-8-7--3-10-8-7--8-8-8-8-8---12-12-12-12-12-----|
F#  ------------------------------------------------------------------|
C#  ------------------------------------------------------------------|
G#  ------------------------------------------------------------------|
C#  ------------------------------------------------------------------|


D#  --------0--0--0-----0--0--0-----0--0--0--0------------------------|
A#  --------0--0--0-----0--0--0-----0--0--0--0------------------------|
F#  --------9--0--0-----0--0--0-----0--0--0--0------------------------|
C#  --------9--9--7-----9--4--5-----0--4--5--7------------------------|
G#  --------7--9--7-----9--4--5-----0--4--5--7------------------------|
C#  --------0--9--7-----9--4--5-----0--4--5--7------------------------|


D#  -----0--0--0---0--0---0--0--0---0--0---0--0--0---0-0--0--0--0-----|
A#  -----0--0--0---0--0---0--0--0---0--0---0--0--0---0-0--0--0--0-----|
F#  -----7--7--7---9--0---0--0--0---0--0---0--0--0---0-0--0--0--0-----|
C#  -----7--7--7---9--9---7--7--7---9--4---5--5--5---0-0--4--5--7-----|
G#  -----5--5--5---7--9---7--7--7---9--4---5--5--5---0-0--4--5--7-----|
C#  -----0--0--0---0--9---7--7--7---9--4---5--5--5---0-0--4--5--7-----|


D#  ------------------------------------------------------------------|
A#  --7-5-7-7-7-5-7-8-7-5---5-3-5-5-5-3-5-7-5-3---3-2-3-3-3-2-3-7-8-5-|
F#  ------------------------------------------------------------------|
C#  ------------------------------------------------------------------|
G#  ------------------------------------------------------------------|
C#  ------------------------------------------------------------------|
Tap to rate this tab
# A B C D E F G H I J K L M N O P Q R S T U V W X Y Z