Song name
# A B C D E F G H I J K L M N O P Q R S T U V W X Y Z

All Time Low - For Baltimore tab

HALF STEP DOWN!

My first tab. Decided to give it a shot. I tabbed out the basics (not the solo 
during the post chorus). Use some common sense and you will know everything. 
Everything sounds right, but any comments are welcome!

Intro chords:

C Am Em G

Mini riff during intro/verse (play one octave lower for verse)
e|-0-1-0-----0-1-0-----0-1-0------0-1-0-----0-1-0-----0-1-0------|
B|---------------------------3------------------------------3----|
G|---------------------------------------------------------------|
D|---------------------------------------------------------------|
A|---------------------------------------------------------------|
E|---------------------------------------------------------------|

VERSE
(Palm muting pattern is usually in 4 or 3 palm mutes)
e|---------------------------------------------------------------|
B|-----------------------------Last notes of verse---------------|
G|-5--2----------------------------------------------------------|
D|-5--2--2--5------X2----------------5~--5-----------------------|
A|-3--0--2--5------------------------5~--5-----------------------|
E|-------0--3------------------------3~--3-----------------------|
   x  x  x  x

CHORUS
(Usually strummed 16 times each)
e|---------------------------------------------------------------|
B|---------------------------------------------------------------|
G|-5--2----------------------------------------------------------|
D|-5--2--2--5----------------------------------------------------| X2
A|-3--0--2--5----------------------------------------------------|
E|-------0--3----------------------------------------------------|


POST CHORUS

e|---------------------------------------------------------------|
B|---------------------------------------------------------------|
G|----10----10-------------10----10------------------------------|
D|-8--x--8--x--8-7-3----8--x--8--x--8-7-5------------------------|
A|-8--8--8--8--8-7-5----8--8--8--8--8-7-5------------------------|
E|-6-----6-----6-5-3----6-----6-----6-5-3------------------------|


REPEAT VERSE

VERSE PICKING

e|---8-------8-------8------------8-------8-------8--------------|
B|-8---8---8---8---8---8/10/8---8---8---8---8---8---8---8/10/8---|
G|---------------------------------------------------------------|
D|---------------------------------------------------------------|
A|---------------------------------------------------------------|
E|---------------------------------------------------------------|

cont.

e|---7-------7-------7-------------------------------------------|
B|-8---8---8---8---8---8-8/10/8/3~---3---------------------------|
G|---------------------------------------------------------------|
D|---------------------------------------------------------------|
A|---------------------------------------------------------------|
E|---------------------------------------------------------------|

REPEAT CHORUS

REPEAT POST CHORUS X2

REPEAT INTRO X2

INTRO PICKING

e|---0-3---5---3-------------------------------------------------|
B|-3-----3---3---3---END ON 3~-----------------------------------|
G|---------------------------------------------------------------|
D|---------------------------------------------------------------| X3
A|---------------------------------------------------------------|
E|---------------------------------------------------------------|

REPEAT CHORUS

REPEAT POST CHORUS

Leave any comments if necessary!
Tap to rate this tab
# A B C D E F G H I J K L M N O P Q R S T U V W X Y Z