Song name
# A B C D E F G H I J K L M N O P Q R S T U V W X Y Z

All Time Low - Heroes tab

All Time Low - Heroes Live
Tabbed by : Khalamity
Drop C#
Based on their Warped Tour '12 Performances

Format :

Verse 1 + Pre Chorus 1
Chorus
Verse 2 + Pre Chorus 2
Chorus
Bridge
Breakdown
Chorus
Outro

~~~~~~~~Verse 1~~~~~~~~

Lead
D#|--------------------------------------------|
A#|--------------------------------------------|
F#|-5-------------5----------------------------|
C#|-5-----5-3-----5----5-3--------------/////--|
G#|-3-----5-3-----3----5-3--------------/////--|
C#|-------5-3----------5-3--------------/////--|
                                        Pickslide
D#|-------------------------------------|
A#|-------------------------------------|
F#|-55555555-77779999-55555555-77777777-|
C#|-xxxxxxxx-xxxxxxxx-xxxxxxxx-xxxxxxxx-| x2
G#|-33333333-55557777-33333333-55555555-|
C#|-------------------------------------|


Rhythm
D#|-------------------------------------------------------|
A#|-------------------------------------------------------|
F#|-5-------------5---------------------------------------|
C#|-5-----5-3-----5-555555555555--5-3--------------/////--|
G#|-3-----5-3-----3-333333333333--5-3-333333333333-/////--|
C#|-------5-3---------------------5-3-333333333333-/////--|
                    xxxxxxxxxxxx      xxxxxxxxxxxx Pickslide
D#|---------------------------------------------------------|
A#|---------------------------------------------------------|
F#|-55555555----------55555555------------------------------|
C#|-55555555-33333333-55555555-33333333---------------------| x2
G#|-33333333-33333333-33333333-33333333---------------------|
C#|----------33333333----------33333333---------------------|


~~~~~~~~Pre-Chorus 1~~~~~~~~

Lead
D#|-------------------------------------|
A#|-------------------------------------|
F#|-9-9-9-9-7-7-7-7-33557777-9910101212-|
C#|-x-x-x-x-x-x-x-x-xxxxxxxx-xxx-x-x-x--|
G#|-7-7-7-7-5-5-5-5-11335555-778-8-1010-|
C#|-------------------------------------|


Rhythm
D#|--------------------------------|
A#|--------------------------------|
F#|--------------------------------|
C#|-7-7-7-7-5-5-5-5-888888888888-8-|
G#|-7-7-7-7-5-5-5-5-888888888888-8-|
C#|-7-7-7-7-5-5-5-5-888888888888-8-|
                    xxxxxxxx


~~~~~~~~Chorus~~~~~~~~
Played Twice

Lead
D#|-------------------------------------------|
A#|-------------------------------------------|
F#|-121212121212121277779999-5555555577779999-|
C#|-x-x-x-x-x-x-x-x-xxxxxxxx-xxxxxxxxxxxxxxxx-|
G#|-101010101010101055557777-3333333355557777-|
C#|-------------------------------------------|

D#|----------xxx-xxx-xxx-|
A#|----------xxx-xxx-xxx-|
F#|-99-44-5--xxx-xxx-xxx-|
C#|-xx-xx-x--xxx-xxx-xxx-|
G#|-77-22-3--xxx-xxx-xxx-|
C#|----------xxx-xxx-xxx-|


Rhythm
D#|-----------------------------------|
A#|-----------------------------------|
F#|-5555555555555555------------------|
C#|-5555555555555555-3333333333333333-|
G#|-3333333333333333-3333333333333333-|
C#|------------------3333333333333333-|

D#|----------xxx-xxx-xxx-|
A#|----------xxx-xxx-xxx-|
F#|-22-------xxx-xxx-xxx-|
C#|-22-22-3--xxx-xxx-xxx-|
G#|-00-22-3--xxx-xxx-xxx-|
C#|----22-3--xxx-xxx-xxx-|


~~~~~~~~Verse 2~~~~~~~~

Lead
D#|------------------------|
A#|------------------------|
F#|-5-------------5--------|
C#|-5-----5-3-----5----5-3-|
G#|-3-----5-3-----3----5-3-|
C#|-------5-3----------5-3-|


Rhythm
D#|-------------------------------------------------------------------|
A#|-------------------------------------------------------------------|
F#|-5--------------------------------5--------------------------------|
C#|-5-555555555555--5-3--------------5-555555555555--5-3--------------|
G#|-3-333333333333--5-3-333333333333-3-333333333333--5-3-333333333333-|
C#|-----------------5-3-333333333333-----------------5-3-333333333333-|
      xxxxxxxxxxxx      xxxxxxxxxxxx   xxxxxxxxxxxx      xxxxxxxxxxxx

~~~~~~~~Pre-Chorus 2~~~~~~~~

Lead
D#|-----------------|  |-----------------|
A#|-----------------|  |---------8-------|
F#|-9-9-9-9-7-7-7-7-|  |-3/5-7-9---9-7-9-|
C#|-x-x-x-x-x-x-x-x-|  |-----------------|
G#|-7-7-7-7-5-5-5-5-|  |-----------------|
C#|-----------------|  |-----------------|


Rhythm
D#|--------------------------------|
A#|--------------------------------|
F#|--------------------------------|
C#|-7-7-7-7-5-5-5-5-888888888888-8-|
G#|-7-7-7-7-5-5-5-5-888888888888-8-|
C#|-7-7-7-7-5-5-5-5-888888888888-8-|
                    xxxxxxxx


~~~~~~~~Bridge~~~~~~~~

Lead (Comes in after Rhythm plays once)
D#|-----------------------------|
A#|-----------------------------|
F#|-222--222--------------/////-|
C#|-222--222-222-333--333-/////-|
G#|-000--000-222-333--333-/////-|
C#|----------222-333--333-/////-|
                      Pickslide
D#|-----------------------|  |--------------------------xxxx-|
A#|-----------------------|  |-----5*-------------------xxxx-|
F#|-999--999-444-555--555-|  |-999---999-444-555-5*-777-xxxx-|
C#|-xxx--xxx-xxx-xxx--xxx-|  |-xxx---xxx-xxx-xxx----xxx-xxxx-|
G#|-777--777-222-333--333-|  |-777---777-222-333----555-xxxx-|
C#|-----------------------|  |--------------------------xxxx-|

D#|--------------------------xxxx-|  |-xxxx-------------------------------|
A#|--------------------------xxxx-|  |-xxxx-------------------------------|
F#|-999---999-444-555-5*-555-xxxx-|  |-xxxx-9/-999-444-555--777-5*-777888-|
C#|-xxx---xxx-xxx-xxx----xxx-xxxx-|  |-xxxx-x/-xxx-xxx-xxx--xxx----xxxxxx-|
G#|-777---777-222-333----333-xxxx-|  |-xxxx-7/-777-222-333--555----555666-|
C#|----10/-------------------xxxx-|  |-xxxx-------------------------------|


Rhythm
D#|-----------------------|  |-----------------------------|
A#|-----------------------|  |-----------------------------|
F#|-222--222--------------|  |-222--222--------------/////-|
C#|-222--222-222-333--333-|  |-222--222-222-333--333-/////-|
G#|-000--000-222-333--333-|  |-000--000-222-333--333-/////-|
C#|----------222-333--333-|  |----------222-333--333-/////-|
                                             Pickslide
D#|-----------------------|  |-----------------------xxxx-|
A#|-----------------------|  |-----------------------xxxx-|
F#|-222--222--------------|  |-222--222--------------xxxx-|
C#|-222--222-222-333--333-|  |-222--222-222-333--555-xxxx-|
G#|-000--000-222-333--333-|  |-000--000-222-333--555-xxxx-|
C#|----------222-333--333-|  |----------222-333--555-xxxx-|

D#|-----------------------xxxx-|  |-xxxx-----------------------------|
A#|-----------------------xxxx-|  |-xxxx-----------------------------|
F#|-222--222--------------xxxx-|  |-xxxx----222----------------------|
C#|-222--222-222-333--333-xxxx-|  |-xxxx-7/-222-222-333--555--555777-|
G#|-000--000-222-333--333-xxxx-|  |-xxxx-7/-000-222-333--555--555777-|
C#|----------222-333--333-xxxx-|  |-xxxx-7/-----222-333--555--555777-|


~~~~~~~~Breakdown~~~~~~~~

Lead
D#|-----|  |----|
A#|-----|  |----|
F#|-12/-|  |-7~-|
C#|-x-/-|  |-x~-|
G#|-10/-|  |-5~-|
C#|-----|  |----|


Rhythm
D#|-----------------------------------------------------|
A#|-----------------------------------------------------|
F#|-5--------------------------------5------------------|
C#|-5-555555555555--5-3--------------5-555555555555--5~-|
G#|-3-333333333333--5-3-333333333333-3-333333333333--5~-|
C#|-----------------5-3-333333333333-----------------5~-|
      xxxxxxxxxxxx      xxxxxxxxxxxx   xxxxxxxxxxxx

~~~~~~~~Outro~~~~~~~~

Lead
D#|--------------------------------|
A#|--------------------------------|
F#|-991010-97799-977-991010-977-9~-|
C#|--------------------------------|
G#|--------------------------------|
C#|--------------------------------|
    xxx x  xxxxx xxx xxx x  xxx x


Rhythm
D#|-------------------------------|
A#|-------------------------------|
F#|----------------------------5~-|
C#|-2233-30022-222-00-2233-300-5~-|
G#|-3333-33333-333-33-3333-333-3~-|
C#|-------------------------------|
    xxxx xxxxx xxx xx xxxx xxx

-----------------------------------------------------------------

Might not be exactly the same as how they play live, but it's fun to play this way 
anyhow. Have fun learning this excellent song.
Tap to rate this tab
# A B C D E F G H I J K L M N O P Q R S T U V W X Y Z