Song name
# A B C D E F G H I J K L M N O P Q R S T U V W X Y Z

All Time Low - Paint You Wings tab

ALL TIME LOW
"Paint you wings"
- Don't panic -
(standard tuning)

INTRO:
e|---------------------------------|
B|--5------------------------------|
G|--6--9--13/14/13--6--4-6-4-6--8--|
D|--6--x--xx-xx-xx--x--x-x-x-x--x--|
A|--4--7--11/12/11--4--2-4-2-4--6--| x4
E|---------------------------------|

VERSE:
|------------------------------------------------------|
|------------------------------------------------------|
|--------------------------22--------------------------|
|--2------22------22-------22--2------22------22-------|
|--2------22------22-------00--2------22------22-------|
|--0-0000-00-0000-00-0000------0-0000-00-0000-00-0000--|

(...empathy for sympathy...)
----------------------------------    --------|
----------------------------------    --------|
--------------------9-6------6----    --------|
--6-7------7-9------9-6------6-6--    --7--9--|
--6-7------7-9------7-4-4444-4-6-- x2 --7--9--|
--4-5-5555-5-7-7777------------4--    --5--7--|

CHORUS:
|---------------------------------|
|--5------------------------------|
|--6--9--13/14/13--6--4-6-4-6--8--|
|--6--x--xx-xx-xx--x--x-x-x-x--x--|
|--4--7--11/12/11--4--2-4-2-4--6--| x2
|---------------------------------|

(..but there was a monster..)
--------------------|
--------------------|
--6--8--5--6--6--8--|
--7--9--6--6--7--9--|
--7--9--6--4--7--9--|
--5--7--4-----5--7--|

REPEAT: intro, verso, chorus

BRIDGE:
|--------     --------------------------|    --------|
|--------     --------------------------|    --------|
|------9-     -----9-----7------6-----4-|    --------|
|----9---     ---9-----9------9-----7---|    --7--9--|
|--7----- x5  -7-----7-----7------7-----| x2 --7--9--|
|--------     --------------------------|    --5--7--|

REPEAT: chorus x2, intro (not the whole, figure it out)
Tap to rate this tab
# A B C D E F G H I J K L M N O P Q R S T U V W X Y Z