Song name
# A B C D E F G H I J K L M N O P Q R S T U V W X Y Z

All Time Low - Somewhere In Neverland tab

Somewhere in Neverland - All Time Low
Tabbed by Nieper

Standard Tuning

Guitar 1: Jack Barakat
Guitar 2: Alex Gaskarth

Tab Key:
x = muted string
/ = slide
* = palm muting

Intro X2

Guitar 1
e|-------------------------------|
B|-------------------------------|
G|--8-8-12-12/10-10-8-8-12-12-7--|
D|--x-x-x--x--x--x--x-x-x--x--x--|
A|--6-6-10-10/8--8--6-6-10-10-5--|
E|-------------------------------|

Guitar 2
e|-----------------------------------|
B|-----------------------------------|
G|--8-8-8-8-8-8-8-8------------------|
D|--8-8-8-8-8-8-8-8-8-8-8-8-8-8-8-8--|
A|--6-6-6-6-6-6-6-6-8-8-8-8-8-8-8-8--|
E|------------------6-6-6-6-6-6-6-6--|

Guitar 1
e|----------------------------------|
B|----------------------------------|
G|--8-8-12-12/10-10-8-8-12-12/13-12-|
D|--x-x-x--x--x--x--x-x-x--x--x--X--|
A|--6-6-10-10/8--8--6-6-10-10/11-10-|
E|----------------------------------|

Guitar 2
e|-------------------------------------------|
B|-------------------------------------------|
G|-------------------------------------------|
D|--10-10-10-10-10-10-10-10-6-6-6-6-6-6-6-6--|
A|--10-10-10-10-10-10-10-10-6-6-6-6-6-6-6-6--|
E|--8--8--8--8--8--8--8--8--4-4-4-4-4-4-4-4--|

Verse

Guitar 2
e|-----------------------------------------------------------|
B|-----------------------------------------------------------|
G|--8-8-8-8-8------------------------------------------------|
D|--8-8-8-8-8-8-8-8-8-8-8-8-8-10-10-10-10-10-6-6-6-6-6-6-6-6-|x4
A|--6-6-6-6-6-8-8-8-8-8-8-8-8-10-10-10-10-10-6-6-6-6-6-6-6-6-|
E|------------6-6-6-6-6-6-6-6-8--8--8--8--8--4-4-4-4-4-4-4-4-|
    * * * * * * * * * * * * * *  *  *  *  *  * * * * * * * *

Guitar 1 comes in after 2 times with a clean picked riff which I dont know 

(Any help would be appreciated!)

Guitar 2
e|------------------------------------------------x---x---x--|
B|------------------------------------------------x---x---x--|
G|------------------------------------------------x---x---x--|
D|--6---------------------6-----------------------x---x---x--|
A|--6---------------------6-----------------------x---x---x--|
E|--4---------------------4-----------------------x---x---x--|
       So here we go again____    Wishing We could start again

Chorus

Guitar 1+2
e|-----------------------------------------------------------|
B|-----------------------------------------------------------|
G|--8-8-8-8-8------------------------------------------------|
D|--8-8-8-8-8-8-8-8-8-8-8-8-8-10-10-10-10-10-6-6-6-6-6-6-6-6-|
A|--6-6-6-6-6-8-8-8-8-8-8-8-8-10-10-10-10-10-6-6-6-6-6-6-6-6-|
E|------------6-6-6-6-6-6-6-6-8--8--8--8--8--4-4-4-4-4-4-4-4-|

e|-------------------------------------------------|
B|-------------------------------------------------|
G|--8-8-8-8-8--------------------------------------|
D|--8-8-8-8-8-8-8-8-8-8-8-8-8-10-10-10-10-10-6-6-6-|
A|--6-6-6-6-6-8-8-8-8-8-8-8-8-10-10-10-10-10-6-6-6-|
E|------------6-6-6-6-6-6-6-6-8--8--8--8--8--4-4-4-|

Then Guitar 1 does a cool riff that again i don't know

Guitar 2
e|-----------------------------------------------------------|
B|-----------------------------------------------------------|
G|--8-8-8-8-8------------------------------------------------|
D|--8-8-8-8-8-8-8-8-8-8-8-8-8-10-10-10-10-10-6-6-6-6-6-6-6-6-|
A|--6-6-6-6-6-8-8-8-8-8-8-8-8-10-10-10-10-10-6-6-6-6-6-6-6-6-|
E|------------6-6-6-6-6-6-6-6-8--8--8--8--8--4-4-4-4-4-4-4-4-|

e|-------------------------------------------------|
B|-------------------------------------------------|
G|--8-8-8-8-8--------------------------------------|
D|--8-8-8-8-8-8-8-8-8-8-8-8-8-10-10-10-10-10-6-6-6-|
A|--6-6-6-6-6-8-8-8-8-8-8-8-8-10-10-10-10-10-6-6-6-|
E|------------6-6-6-6-6-6-6-6-8--8--8--8--8--4-4-4-|

Order of Song:
Intro x2
Verse
Chorus
Verse
Chorus
Bridge (same as verse except no guitar 2 until Alex starts singing again)
Chorus
Intro x2
Tap to rate this tab
 
# A B C D E F G H I J K L M N O P Q R S T U V W X Y Z