Song name
# A B C D E F G H I J K L M N O P Q R S T U V W X Y Z

All Time Low - So Long Soldier tab

-------------------------------------------------------------------------------
                             SO LONG SOLDIER - All Time Low
-------------------------------------------------------------------------------
Tabbed by: Quilava
E-mail: alibonnar01@hotmail.com

Tuning: Standard

INTRO:

e|---------------------------------------------------------------------------|
B|---------------------------------------------------------------------------|
G|---------------------------------------------------------------------------|
D|----------6-------------------------6--------------------------------------|    4 times
A|-6--7--9-----6--7--9-------6--7--9-----6--7--------------------------------|
E|---------------------------------------------7-----------------------------|

VERSE 1:

e|---------------------------------------------------------------------------|
B|---------------------------------------------------------------------------|
G|-6-------------------------------------4-----------------------------------|
D|-6----x16--6--------7---------2--------4--x8-------------------------------|   2 times
A|-4---------6--x16---7--x16----2--x8----2-----------------------------------|
E|-----------4--------5---------0--------------------------------------------|

PRE-CHORUS:

e|---------------------------------------------------------------------------|
B|---------------------------------------------------------------------------|
G|---------------------------------------------------------------------------|
D|-777-7-7-777-7-7---999-9-9-999-9-9---777-7-7-777-7-7---999-9-9-99----------|
A|-777-7-7-777-7-7---999-9-9-999-9-9---777-7-7-777-7-7---999-9-9-99----------|
E|-555-5-5-555-5-5---777-7-7-777-7-7---555-5-5-555-5-5---777-7-7-77----------|
   *** * * *** * *   *** * * *** * *   *** * * *** * *   *** * * **

CHORUS:

e|---------------------------------------------------------------------------|
B|---------------------------------------------------------------------------|
G|----------4-------2--------4-------6--------4--------7---------------------|
D|-2--------4--x1---2--31x---4--x1---6--x16---4--x16---7--x32----------------|
A|-2--x31---2-------0--------2-------4--------2--------5---------------------|
E|-0-------------------------------------------------------------------------|

INTRO:

e|---------------------------------------------------------------------------|
B|---------------------------------------------------------------------------|
G|---------------------------------------------------------------------------|
D|----------6-------------------------6--------------------------------------|    2 times
A|-6--7--9-----6--7--9-------6--7--9-----6--7--------------------------------|
E|---------------------------------------------7-----------------------------|

VERSE 2:

e|---------------------------------------------------------------------------|
B|---------------------------------------------------------------------------|
G|-6-6-----------------------------------4-4---------------------------------|
D|-6-6--x16--6-6-------7-7-------2-2-----4-4--x8-----------------------------|   2 times
A|-4-4-------6-6--x16--7-7--x16--2-2-x8--2-2---------------------------------|
E|-----------4-4-------5-5-------0-0-----------------------------------------|
     *         *         *         *       *

PRE-CHORUS:

e|---------------------------------------------------------------------------|
B|---------------------------------------------------------------------------|
G|---------------------------------------------------------------------------|
D|-777-7-7-777-7-7---999-9-9-999-9-9---777-7-7-777-7-7---999-9-9-99----------|
A|-777-7-7-777-7-7---999-9-9-999-9-9---777-7-7-777-7-7---999-9-9-99----------|
E|-555-5-5-555-5-5---777-7-7-777-7-7---555-5-5-555-5-5---777-7-7-77----------|
   *** * * *** * *   *** * * *** * *   *** * * *** * *   *** * * **

CHORUS:

e|---------------------------------------------------------------------------|
B|---------------------------------------------------------------------------|
G|----------4-------2--------4-------6--------4--------7---------------------|
D|-2--------4--x1---2--31x---4--x1---6--x16---4--x16---7--x32----------------|
A|-2--x31---2-------0--------2-------4--------2--------5---------------------|
E|-0-------------------------------------------------------------------------|

INTRO:

e|---------------------------------------------------------------------------|
B|---------------------------------------------------------------------------|
G|---------------------------------------------------------------------------|
D|----------6-------------------------6--------------------------------------|    2 times
A|-6--7--9-----6--7--9-------6--7--9-----6--7--------------------------------|
E|---------------------------------------------7-----------------------------|

OUTRO:

e|---------------------------------------------------------------------------|
B|---------------------------------------------------------------------------|
G|-9--------6--------4--------7----------------------------------------------|
D|-9--x64---6--x16---4--x16---7--x32-----------------------------------------|
A|-7--------4--------2--------5----------------------------------------------|
E|---------------------------------------------------------------------------|


************************************

| /   slide up
| \   slide down
| h   hammer-on
| p   pull-off
| ~   vibrato
| +   harmonic
| x   Mute note
| b   Bend
| pb  Pre-bend
| br  Bend release
| pbr Pre-bend release
| brb Bend release bend
| *   Palm mute

************************************
Tap to rate this tab
# A B C D E F G H I J K L M N O P Q R S T U V W X Y Z