Song name
# A B C D E F G H I J K L M N O P Q R S T U V W X Y Z

All Time Low - The Reckless And The Brave chords

Highlighted       Show chord diagrams
The Reckless and the Brave

I suggest that you use power chords for the whole song, because it sounds
 much better that way but however you guys like it... and this is my first
 tab so please rate and comment to let me know how I did!

Intro:

C#                     D#m A#m G#
Long live the reckless and the brave
                A#m     G# F#
I don't think I want to be saved
   D#                G#
My song has not been sung

So long live us
e|---------------------------------------------------------------------------|
B|---------------------------------------------------------------------------|
G|---------------------------------------------------------------------------|
D|---------------------------------------------------------------------------|
A|----8-6-8----8-6-8---9---8---6---6-4-6---6-4-6---8-6-4---4-3-4---4-3-4-----|
E|---------------------------------------------------------------------------|


e|---------------------------------------------------------------------------|
B|---------------------------------------------------------------------------|
G|---------------------------------------------------------------------------|
D|---------------------------------------------------------------------------|
A|----8---9---6////11--------------------------------------------------------|
E|---------------------------------------------------------------------------|
Verse:

C#                              D#m A#m G#
Looking out at a town called Suburbia
                                 A#m G# 
Everybody's just fighting to fit in
F#                                C#
Little rats running mazes, having babies
                       G#
It's a vicious little world that we live in
C#                              D#m A#m G#
Looking back at a life on the other side
                             A#m G#
I realize that I didn't fit in
F#                                  D#
Didn't hate it but I didn't quite relate it
                      G#
To my precious little world

Chorus:

C#                        D#m A#m G#
So long live the reckless and the brave
                A#m     G# F#
I don't think I want to be saved
   D#                G#
My song has not been sung
    D#                           D#m  A#m  G#
And long live the fast times, so come what may
                   A#m  G# F#
I don't think I'll ever be saved
    D#                G#
Our song has not been sung

Long live us

Verse:

C#                               D#m A#m G#
Breaking out of a town called Suburbia
                               A#m G# 
I remember everybody always saying
        F#                         C#
"Little brat, must be crazy, never make it
                      G#
In our vicious little world"

Still I'm leaving
C#                               D#m A#m G#
Got a van, got a chance, got my dignity
                                  A#m G# F#
Got a dream, got a spark, got somewhere to be
                       D#
Take a breath, say goodbye
                         G#
To their precious little world

(And say goodbye to me)

Chorus:

C#                        D#m A#m G#
So long live the reckless and the brave
                A#m     G# F#
I don't think I want to be saved
   D#                G#
My song has not been sung
    D#                           D#m  A#m  G#
And long live the fast times, so come what may
                   A#m  G# F#
I don't think I'll ever be saved
    D#                G#
Our song has not been sung
            C#   G#   F# C#
Long live us

            F#  A#
Long live us

Chorus:

C#                        D#m A#m G#
So long live the reckless and the brave
                A#m     G# F#
I don't think I want to be saved
   D#                G#
My song has not been sung
    D#                           D#m  A#m  G#
And long live the fast times, so come what may
                   A#m  G# F#
I don't think I'll ever be saved
    D#                G#
Our song has not been sung

Long live us

And long live the fast times, so come what may
I don't think that I'll ever be saved, I know
Our song has not been sung
Long live us
e|---------------------------------------------------------------------------|
B|---------------------------------------------------------------------------|
G|---------------------------------------------------------------------------|
D|---------------------------------------------------------------------------|
A|----8-6-8----8-6-8---9---8---6---6-4-6---6-4-6---8-6-4---4-3-4---4-3-4-----|
E|---------------------------------------------------------------------------|

Long live us 

e|---------------------------------------------------------------------------|
B|---------------------------------------------------------------------------|
G|---------------------------------------------------------------------------|
D|---------------------------------------------------------------------------|
A|----8---9---6////11--------------------------------------------------------|
E|---------------------------------------------------------------------------|
Tap to rate this tab
# A B C D E F G H I J K L M N O P Q R S T U V W X Y Z