Song name
# A B C D E F G H I J K L M N O P Q R S T U V W X Y Z

All Time Low - Therapy chords

Highlighted       Show chord diagrams
Therapy

Tuning : Standard


-Intro-
|------------------|------------------|------------------|------------------|
|-----2h3-2----0---|-----2h3-2----0---|-----2--------2---|-----2h3-2----0---|
|---2--------2---2-|---2--------2---2-|---2---2----2---2-|---2--------2---2-|
|------------------|-0----------------|------------------|-0----------------|
|-0----------------|------------------|------------------|------------------|
|------------------|------------------|-2--------0-------|------------------|
*Repeat This After First Chorus

-Verse-
   A                   D
My ship went down in a sea of sound
       F#m7    E         D
When I woke up alone I had everything
  A                    D
A handful of moments I wished I could change
      F#m7          E            D
And a tongue like a nightmare that cut like a blade
     A                   D
In a city of fools I was careful and cool
         F#m7    E          D
But they tore me apart like a hurricane
  A
A handful of moments 
  D                          F#m7     E   D
I wish I could change but I was carried away

-CHORUS-
         A
Give me therapy
      E            F#m7
I'm a walking travesty
        D
But I'm smiling at everything
A                 E                F#m7
Therapy, you were never a friend to me
            D
And you can keep all your misery

-VERSE 2-
   A
My lungs gave out
     D
As i faced the crowd
             F#m7         E           D               
I think that keeping this up could be dangerous
    A
I'm flesh and bone
       D
I'm a rolling stone
        F#m7    E         D
and the experts say I'm delirious

-Chorus-
         A
Give me therapy
      E            F#m7
I'm a walking travesty
        D
But I'm smiling at everything
A                 E               F#m7
Therapy, you were never a friend to me
            D
And you can take back your misery

-Brigde-
Bm                     A
Arrogant boy, love yourself so no one has to
        E
They're better off without you
         E4             E
(They're better off without you)
Bm                    A
Arrogant boy, cause a scene like you're supposed to
        F#m
They'll fall asleep without you
       D                       A
You're lucky if your memory remains

-Repeat Chorus-

-Outro-
|-----------------|-----------------|---------------------0-|
|-----2h3-2---0---|-----2h3-2---0---|-----2---------2-----3-|
|---2-----------2-|---2-----------2-|---2---2-----2---2---2-|
|-----------------|-0---------------|---------------------0-|
|-0---------------|-----------------|-----------------------|
|-----------------|-----------------|-4---------2-----------|
Tap to rate this tab
# A B C D E F G H I J K L M N O P Q R S T U V W X Y Z