Song name
# A B C D E F G H I J K L M N O P Q R S T U V W X Y Z

All Time Low - Lullabies tab

Intro (x4) (Clean)
e|----------------12-----|
B|-------12----12----12--|    
G|----9-----9------------| 
D|-----------------------|
A|-----------------------|
D|-----------------------|

Verse 1 (x4) (Clean)
e|----------------------|
B|----------------------|
G|----8--------13-------|    
D|----9-x12----14-x12---|
A|----7--------12-------|
D|----------------------|

Verse 2 (x4) (Distorted)
e|--------------------------------|
B|----x-x--x--------x--x---x------|
G|----8-8--8-8~----13-13--13-13~--|    
D|----9-9--9-9~----14-14--14-14~--|
A|----7-7--7-7~----12-12--12-12~--|
D|--------------------------------|

Chorus (Distorted)
e|--------------------|
B|--------------------|
G|----8--------2------|
D|----9-x12----2-x12--|
A|----7--------0------|
D|--------------------|

e|---------------------------------|
B|---------------------------------|
G|----8--------2-------1-----2-----|
D|----9-x12----2-x6----2-x3--4-x3--|
A|----7--------0-------0-----0-----|
D|---------------------------------|

e|------------x-5*----------|
B|------------x-5*----------|
G|----8-8-8-8-x-5*---2------|
D|----9-9-9-9-x-5*---2-x12--|
A|----7-7-7-7-x-5*---0------|
D|------------x-5*----------|

e|----------------------------------------------|
B|----------------------------------------------|
G|----8---------14------13------11------9-------|
D|----9-x12-----X--x4---X--x4---X--x4---X--x4---|
A|----7---------12------11------9-------7-------|
D|----------------------------------------------|

Post-chorus (Distorted)
e|-----------------------|
B|-----------------------|
G|-xx-8-8----xx-13-13----|
D|-xx-9-9-x4-xx-14-14-x4-|
A|-xx-7-7----xx-12-12----|
D|-xx--------xx----------|

Verse 3 (x4)
e|-----------------------|
B|-----------------------|
G|-xx-8-8----xx-13-13----|
D|-xx-9-9-x4-xx-14-14-x4-|
A|-xx-7-7----xx-12-12----|
D|-xx--------xx----------|
               

Refrain (x2)
e|----------------------------|
B|----------------------------|
G|----x-x-x-x--x-x---x--------| 
D|----4-4-4-4--6-6---7--x12---|
A|----4-4-4-4--6-6---7--------|
D|----4-4-4-4--6-6---7--------|

Chorus
e|--------------------|
B|--------------------|
G|----8--------2------|
D|----9-x12----2-x12--|
A|----7--------0------|
D|--------------------|

e|---------------------------------|
B|---------------------------------|
G|----8--------2-------1-----2-----|
D|----9-x12----2-x6----2-x3--4-x3--|
A|----7--------0-------0-----0-----|
D|---------------------------------|

e|------------------------|
B|------------------------|
G|----8-8-8-8~-----2------|
D|----9-9-9-9~-x2--2-x12--|
A|----7-7-7-7~-----0------|
D|------------------------|

e|----------------------------------------------|
B|----------------------------------------------|
G|----8---------14------13------11------9-------|
D|----9-x12-----X--x4---X--x4---X--x4---X--x4---|
A|----7---------12------11------9-------7-------|
D|----------------------------------------------|

Bridge (Clean)
e|----------------------|
B|----------------------|
G|----8--------13-------|    x4
D|----9-x12----14-x12---|
A|----7--------12-------|
D|----------------------|

Last Chorus (faster)
e|--------------------|
B|--------------------|
G|----8--------2------|
D|----9-x16----2-x16--|
A|----7--------0------|
D|--------------------|

e|---------------------------------|
B|---------------------------------|
G|----8--------2-------1-----2-----|
D|----9-x16----2-x8----2-x4--4-x4--|
A|----7--------0-------0-----0-----|
D|---------------------------------|

e|--------------------|
B|--------------------|
G|----8--------2------|
D|----9-x16----2-x16--|
A|----7--------0------|
D|--------------------|

e|----------------------------------------------|
B|----------------------------------------------|
G|----8---------14------13------11------9-------|
D|----9-x16-----X--x4---X--x4---X--x4---X--x4---|
A|----7---------12------11------9-------7-------|
D|----------------------------------------------|

Outro
e|--------------------------------|
B|----x-x--x--------x--x---x------|
G|----8-8--8-8~----13-13--13-13~--|    
D|----9-9--9-9~----14-14--14-14~--|
A|----7-7--7-7~----12-12--12-12~--|
D|--------------------------------|

Legend
x - palm mute
~ - let ring
* - harmonics

Make it a sweet, sweet goodbye -
It could be for the last time and it's not right.
"Don't let yourself get in over your head," he said.
Alone and far from home I'll find you...

Dead - Like a candle you burned out;
Spill the wax over the spaces left in place of angry words.
Scream - To be heard, like you needed any more attention;
Throw the bottle, break the door, and disappear.

Sing me to sleep,
I'll see you in my dreams
Waiting to say, "I miss you. I'm so sorry."

Forever's never seemed so long;
Cause when you're not around it's like a piece of me is missing.
I could have learned so much from you,
But what's left now?
Don't you realize you showed this family a world of pain?
Can't you see there could have been a happy ending we let go?

Sing me to sleep,
I'll see you in my dreams,
Waiting to say, "I miss you. I'm so sorry."

Sing me to sleep,
Sing me to sleep,
Sing me to sleep,
Sing me to sleep.

Sing me to sleep (You've taken so much with you)
I'll see you in my dreams, (But left the worst with me),
Waiting to say, "I miss you. I'm so sorry. I'm sorry, I'm sorry."
Tap to rate this tab
# A B C D E F G H I J K L M N O P Q R S T U V W X Y Z