Song name
# A B C D E F G H I J K L M N O P Q R S T U V W X Y Z

All Time Low - The Reckless And The Brave tab

All time low - Long live the reckless and the brave
From Album: Dont panic (2012)

Tuning: EADGBe

Intro: 0.00-0.12

During the verses and chrouses, you can put your index finger or a capo on fret 1 if you 
think it sounds better that way. If you do it that way, move every chord one fret up. 
If not, just play them as normal chords as I have tabbed them.

e----------------3--(X16)-------------------3--(X16)-|
B--1--(X16)-------------------1----------------------|
G---------------------- ------2--(X16)---------------|   (preferably downstrokes)
D--2--(X16)-------------------2--(X16)---------------|
A--3--(X16)------2--(X16)--------(X16)------3--(X16)-|
E----------------3--(X16)-------------------2--(X16)-|


Solo 0.13-0.25
e---------------------------------------------------------------------------|
B--8-6-8~--8-6-8--7-6--6-4-6~--6-4-6--5-4---4-3-4~--4-3-4--6-8-6/17---------|
G---------------------------------------------------------------------------|
D---------------------------------------------------------------------------|
A---------------------------------------------------------------------------|
E---------------------------------------------------------------------------|

Verse 0.26-0.48 (optional)

e-------3---------3------------|
B--1---------1-----------------|
G------------2-----------------|
D--2---------2-----------------|           X2
A--3----2---------2------------|
E-------3---------3------------|
  X16  X16  X16  X16


Guitar 2 (kicks in at 0.37)

e-------------------------------------------|
B-------------------------------------------|
G-------------------------------------------|
D--3------------5------------7------------5-|
A--3------------5------------7------------5-|
E--3------------3------------5------------5-|
   *            *            *            *
  X16          X16          X16          X16


Chorus 0.49-1.15 = same as verse

Verse 1.16-1.28

Chorus 1.29-2.03

Bridge 2.04-2.17

e--------------------9-9--9-9--9-9--9-9\8/9--11-11--11-11--11-11--11-11\8-|
B--7~--9~--5~--7~----9-9--9-9--9-9--9-9\8/9--11-11--11-11--11-11--11-11\8-|
G--------------------8-8--8-8--8-8--8-8\7/8--10-10--10-10--10-10--10-10\7-|
D-------------------------------------------------------------------------|
A-------------------------------------------------------------------------|
E-------------------------------------------------------------------------|
        X3

2.18-2.29 Intro

2.30-2.54 Chorus

At 2.41

e--------|
B--------|
G--------|
D--------|
A--2-3-4-|
E--------|


At 2.47

e--------------|
B--------------|
G--------------|
D-0-0-2--0-0-2-|
A-0-0-2--0-0-2-|
E-0-0-2--0-0-2-|
  * * *  * * *



2.54 till the end: Solo

* palm mute
/ slide up
\ slide down
~ vibrato
Tap to rate this tab
# A B C D E F G H I J K L M N O P Q R S T U V W X Y Z