Song name
# A B C D E F G H I J K L M N O P Q R S T U V W X Y Z

All Time Low - Dear Maria Count Me In Acoustic tab

This is the way I play this song. Sounds good and it's fun to play.
Please comment or make a correction either through email (tanner.drage@yahoo.com) or 
down below in the comment section if you see something wrong. PLEASE rate and enjoy!


Intro: (*'s mean 11)
e|---------------------------------------------------------------|
B|---------------------------------------------------------------|
G|--****************-7777777777777777-7777777777777777-999999999-|
D|--9999999999999999-5555555555555555-0000000000000000-777777777-|
A|--9999999999999999-5555555555555555-0000000000000000-777777777-|
D|--9999999999999999-5555555555555555-0000000000000000-777777777-|
    ................ ................ ................ .....

---------|
---------|
-6/7\6---|
-x/x\x---|
-4/5\4---|
---------|

Chorus:
|----------------------------------------------------------------------|
|----------------------------------------------------------------------|
|--****************-7777777777777777-7777777777777777-9999999999999999-|
|--9999999999999999-5555555555555555-0000000000000000-7777777777777777-|
|--9999999999999999-5555555555555555-0000000000000000-7777777777777777-|
|--9999999999999999-5555555555555555-0000000000000000-7777777777777777-|

Verse:
|------------------------------------------------------------------|
|------------------------------------------------------------------|
|--*~-************-7~-777777777777-4~-444444444444-9~-999999999999-|
|--9~-999999999999-5~-555555555555-2~-222222222222-7~-777777777777-|
|--9~-999999999999-5~-555555555555-2~-222222222222-7~-777777777777-|
|--9~-999999999999-5~-555555555555-2~-222222222222-7~-777777777777-|
      ............    ............    ............    .......

                                                           (" means 10)
|---------------------------------------------------------------------|
|---------------------------------------------------------------------|
|-**-*-*-*-*-*-*-*-77-7-7-7-7-7-7-7-44-4-4-4-4-4-4-4-99999999"""""""x-|
|-99-9-9-9-9-9-9-9-55-5-5-5-5-5-5-5-22-2-2-2-2-2-2-2-777777778888888x-|
|-99-9-9-9-9-9-9-9-55-5-5-5-5-5-5-5-22-2-2-2-2-2-2-2-777777778888888x-|
|-99-9-9-9-9-9-9-9-55-5-5-5-5-5-5-5-22-2-2-2-2-2-2-2-777777778888888x-|

Repeat Chorus 3x last time w/o vocals

Verse 2:
|-----------------------------------------------------------------|
|-----------------------------------------------------------------|
|--*~\-----------x7~-777777777777-4~-444444444444-9~-999999999999-|
|--9~\-----------x5~-555555555555-2~-222222222222-7~-777777777777-|
|--9~\-----------x5~-555555555555-2~-222222222222-7~-777777777777-|
|--9~\-----------x5~-555555555555-2~-222222222222-7~-777777777777-|
                     ............    ............    ............

------------------------------------------------------------------------|
------------------------------------------------------------------------|
-*-*~\-----------x77-7-7-7-7-7-7-7-4~-4444444444444444-99999999""""""""-|
-9-9~\-----------x55-5-5-5-5-5-5-5-2~-2222222222222222-7777777788888888-|
-9-9~\-----------x55-5-5-5-5-5-5-5-2~-2222222222222222-7777777788888888-|
-9-9~\-----------x55-5-5-5-5-5-5-5-2~-2222222222222222-7777777788888888-|

Repeat Chorus 2x

Bridge:
|------------------------------------------|
|------------------------------------------|
|--9-9-----9-9---6-6---7-7-----7-7---9-9---|
|--0-0-x-x-7-7-x-4-4-x-5-5-x-x-5-5-x-7-7-x-|
|--0-0-x-x-7-7-x-4-4-x-5-5-x-x-5-5-x-7-7-x-|
|--0-0-x-x-7-7-x-4-4-x-5-5-x-x-5-5-x-7-7-x-|
Play this riff ^ 5 and 1/2x then play:

--------------------|
--------------------|
--77777777-99999999-|
--55555555-77777777-|
--55555555-77777777-|
--55555555-77777777-|
  ........ .....

Final Chorus:
|----------------------------------------------------------------------|
|----------------------------------------------------------------------|
|--*-*~\------------7777777777777777-7777777777777777-999999999999-----|
|--9-9~\-----------x5555555555555555-0000000000000000-777777777777xxxx-|
|--9-9~\-----------x5555555555555555-0000000000000000-777777777777xxxx-|
|--9-9~\-----------x5555555555555555-0000000000000000-777777777777xxxx-|

|----------------------------------------------------------------------|
|----------------------------------------------------------------------|
|--****************-7777777777777777-7777777777777777-9999999999999999-|
|--9999999999999999-5555555555555555-0000000000000000-7777777777777777-|
|--9999999999999999-5555555555555555-0000000000000000-7777777777777777-|
|--9999999999999999-5555555555555555-0000000000000000-7777777777777777-|

Outro:
|----------------------------------------------------------------------|
|-12~~~~~~~~~~~~~~~-8~~~~~~~~~~~~~~~-3~~~~~~~~~~~~~~~10~~~~~~~~~~~~~~~-|
|-11~~~~~~~~~~~~~~~-7~~~~~~~~~~~~~~~-2~~~~~~~~~~~~~~~-9~~~~~~~~~~~~~~~-|
|--9~~~~~~~~~~~~~~~-5~~~~~~~~~~~~~~~-0~~~~~~~~~~~~~~~-7~~~~~~~~~~~~~~~-|
|--9~~~~~~~~~~~~~~~-5~~~~~~~~~~~~~~~-0~~~~~~~~~~~~~~~-7~~~~~~~~~~~~~~~-|
|--9~~~~~~~~~~~~~~~-5~~~~~~~~~~~~~~~-0~~~~~~~~~~~~~~~-7~~~~~~~~~~~~~~~-|


And done! Hope you like the tab! Feedback would be great, don't forget to rate, and I'll 
see you later!
Tap to rate this tab
 
# A B C D E F G H I J K L M N O P Q R S T U V W X Y Z