Song name
# A B C D E F G H I J K L M N O P Q R S T U V W X Y Z

All Time Low - The Irony Of Choking On A Lifesaver tab

-------------------------------------------------------------------------------
                             The Irony Of Choking On A Lifesaver - All Time Low
-------------------------------------------------------------------------------
Tabbed by: PhAntomNewo64
E-mail: owenpetch@icloud.com email me any problems!

Tuning: EADGbe

INTRO

Guitar 1 (x2)

e|--14---------14-------------------------14--------14-----------------------|
B|-------11---------11---------12/11\12--------11--------11------------------|
G|------------------------------------------------------------16/15\16-------|
D|---------------------------------------------------------------------------|
A|---------------------------------------------------------------------------|
E|---------------------------------------------------------------------------|

Guitar 2 (x2)

e|-----------------------------------------------------------------------------------|
B|-----------------------------------------------------------------------------------|
G|---------------4-3-4--------------4-3-4----8-8--8--8--4-3-4---8-8--8--8--4-3-------|
D|---4-4--4--4--4-3-4---4-4--4--4--4-3-4----8-8--8--8--4-3-4---8-8--8--8--4-3--------|
A|---4-4--4--4--2-1-2---4-4--4--4--2-1-2----6-6--6--6--2-1-2---6-6--6--6--2-1--------|
E|---2-2--2--2----------2-2--2--2----------------------------------------------------|

VERSE 1

Guitar 1 Silent

Guitar 2

e|------------------------------------------------------------------------------|
B|------------------------------------------------------------------------------|
G|------------4-3-4------------8---------4-3-4----------------------------------|
D|--4---------4-3-4---(x2)-----8---------4-3-4---(x2)---------------------------|
A|--4---------2-1-2-----------6---------2-1-2-----------------------------------|
E|--2---------------------------------------------------------------------------|

PRE CHORUS

Both Guitars

e|------------------------------------------------------------------------------|
B|------------------------------------------------------------------------------|
G|------------------------------------------------------------------------------|
D|------11-------------9--------------------------------------------------------|
A|------11-(x16)--------9-(x16)-------------------------------------------------|
E|-------9--------------7-------------------------------------------------------|

CHORUS

Guitar 1 (x2)

e|--14---------14-------------------------14--------14--------------------------|
B|-------11---------11---------12/11\12--------11--------11---------------------|
G|------------------------------------------------------------16/15\16----------|
D|------------------------------------------------------------------------------|
A|------------------------------------------------------------------------------|
E|------------------------------------------------------------------------------|

Guitar 2 (x2)

e|-----------------------------------------------------------------------------------|
B|-----------------------------------------------------------------------------------|
G|---------------4-3-4--------------4-3-4----8-8--8--8--4-3-4---8-8--8--8--4-3-4-----|
D|---4-4--4--4--4-3-4---4-4--4--4--4-3-4----8-8--8--8--4-3-4---8-8--8--8--4-3-4------|
A|---4-4--4--4--2-1-2---4-4--4--4--2-1-2----6-6--6--6--2-1-2---6-6--6--6--2-1-2------|
E|---2-2--2--2----------2-2--2--2----------------------------------------------------|

POST CHORUS

Guitar 1 Silent

Guitar 2

e|-------------|
B|-------------|
G|----8--------|
D|----8--------|
A|----6--------|
E|-------------|

INTERLUDE

Guitar 1 (x2)

e|--14---------14-------------------------14--------14-----------------------|
B|-------11---------11---------12/11\12--------11--------11------------------|
G|------------------------------------------------------------16/15\16-------|
D|---------------------------------------------------------------------------|
A|---------------------------------------------------------------------------|
E|---------------------------------------------------------------------------|

Guitar 2 (x2)

e|-----------------------------------------------------------------------------------|
B|-----------------------------------------------------------------------------------|
G|---------------4-3-4--------------4-3-4----8-8--8--8--4-3-4---8-8--8--8--4-3-------|
D|---4-4--4--4--4-3-4---4-4--4--4--4-3-4----8-8--8--8--4-3-4---8-8--8--8--4-3--------|
A|---4-4--4--4--2-1-2---4-4--4--4--2-1-2----6-6--6--6--2-1-2---6-6--6--6--2-1--------|
E|---2-2--2--2----------2-2--2--2----------------------------------------------------|

VERSE 2

Guitar 1 Silent

Guitar 2

e|------------------------------------------------------------------------------|
B|------------------------------------------------------------------------------|
G|------------4-3-4------------8---------4-3-4----------------------------------|
D|--4---------4-3-4---(x2)-----8---------4-3-4---(x2)---------------------------|
A|--4---------2-1-2-----------6---------2-1-2-----------------------------------|
E|--2---------------------------------------------------------------------------|

PRE CHORUS

Both Guitars

e|------------------------------------------------------------------------------|
B|------------------------------------------------------------------------------|
G|------------------------------------------------------------------------------|
D|------11-------------9--------------------------------------------------------|
A|------11-(x16)--------9-(x16)-------------------------------------------------|
E|-------9--------------7-------------------------------------------------------|

CHORUS

Guitar 1 (x2)

e|--14---------14-------------------------14--------14--------------------------|
B|-------11---------11---------12/11\12--------11--------11---------------------|
G|------------------------------------------------------------16/15\16----------|
D|------------------------------------------------------------------------------|
A|------------------------------------------------------------------------------|
E|------------------------------------------------------------------------------|

Guitar 2 (x2)

e|-----------------------------------------------------------------------------------|
B|-----------------------------------------------------------------------------------|
G|---------------4-3-4--------------4-3-4----8-8--8--8--4-3-4---8-8--8--8--4-3-4-----|
D|---4-4--4--4--4-3-4---4-4--4--4--4-3-4----8-8--8--8--4-3-4---8-8--8--8--4-3-4------|
A|---4-4--4--4--2-1-2---4-4--4--4--2-1-2----6-6--6--6--2-1-2---6-6--6--6--2-1-2------|
E|---2-2--2--2----------2-2--2--2----------------------------------------------------|

POST CHORUS

Guitar 1 Silent

Guitar 2

e|-------------|
B|-------------|
G|----8--------|
D|----8--------|
A|----6--------|
E|-------------|

INTERLUDE

Guitar 1

e|--14---------14-------------------------14--------14-----------------------|
B|-------11---------11---------12/11\12--------11--------11------------------|
G|------------------------------------------------------------16/15\16-------|
D|---------------------------------------------------------------------------|
A|---------------------------------------------------------------------------|
E|---------------------------------------------------------------------------|

Guitar 2

e|-----------------------------------------------------------------------------------|
B|-----------------------------------------------------------------------------------|
G|---------------4-3-4--------------4-3-4----8-8--8--8--4-3-4---8-8--8--8--4-3-------|
D|---4-4--4--4--4-3-4---4-4--4--4--4-3-4----8-8--8--8--4-3-4---8-8--8--8--4-3--------|
A|---4-4--4--4--2-1-2---4-4--4--4--2-1-2----6-6--6--6--2-1-2---6-6--6--6--2-1--------|
E|---2-2--2--2----------2-2--2--2----------------------------------------------------|

BRIDGE

(Just play chords)

F#                              D#m
Why can't you just be happy for me?

I'll never be good enough no, I'll never be good enough
F#                              D#m
Why can't you just be happy for me?

I'll never be good enough no, I'll never be good enough

PRE CHORUS

Both Guitars

e|------------------------------------------------------------------------------|
B|------------------------------------------------------------------------------|
G|------------------------------------------------------------------------------|
D|------11-------------9--------------------------------------------------------|
A|------11-(x16)--------9-(x16)-------------------------------------------------|
E|-------9--------------7-------------------------------------------------------|

CHORUS

Guitar 1 (x2)

e|--14---------14-------------------------14--------14--------------------------|
B|-------11---------11---------12/11\12--------11--------11---------------------|
G|------------------------------------------------------------16/15\16----------|
D|------------------------------------------------------------------------------|
A|------------------------------------------------------------------------------|
E|------------------------------------------------------------------------------|

Guitar 2 (x2)

e|-----------------------------------------------------------------------------------|
B|-----------------------------------------------------------------------------------|
G|---------------4-3-4--------------4-3-4----8-8--8--8--4-3-4---8-8--8--8--4-3-4-----|
D|---4-4--4--4--4-3-4---4-4--4--4--4-3-4----8-8--8--8--4-3-4---8-8--8--8--4-3-4------|
A|---4-4--4--4--2-1-2---4-4--4--4--2-1-2----6-6--6--6--2-1-2---6-6--6--6--2-1-2------|
E|---2-2--2--2----------2-2--2--2----------------------------------------------------|

POST CHORUS

Guitar 1 Silent

Guitar 2

e|-------------|
B|-------------|
G|----8--------|
D|----8--------|
A|----6--------|
E|-------------|

OUTRO

Guitar 2 (x2)

e|-----------------------------------------------------------------------------------|
B|-----------------------------------------------------------------------------------|
G|---------------4-3-4--------------4-3-4----8-8--8--8--4-3-4---8-8--8--8--4-3-4-----|
D|---4-4--4--4--4-3-4---4-4--4--4--4-3-4----8-8--8--8--4-3-4---8-8--8--8--4-3-4------|
A|---4-4--4--4--2-1-2---4-4--4--4--2-1-2----6-6--6--6--2-1-2---6-6--6--6--2-1-2------|
E|---2-2--2--2----------2-2--2--2----------------------------------------------------|

END

************************************

| \   slide up
| /   slide down
| h   hammer-on
| p   pull-off
| ~   vibrato
| +   harmonic
| x   Mute note
| b   Bend
| pb  Pre-bend
| br  Bend release
| pbr Pre-bend release
| brb Bend release bend

************************************
Tap to rate this tab
 
# A B C D E F G H I J K L M N O P Q R S T U V W X Y Z