Song name
# A B C D E F G H I J K L M N O P Q R S T U V W X Y Z

All Time Low - A Love Like War tab

-------------------------------------------------------------------------------
                             A Love Like War - All Time Low
-------------------------------------------------------------------------------
Tabbed by:Connor Smith
E-mail:connorbetts-1995@hotmail.co.uk

Tuning:Drop D

Any improvements you can think of leave a comment!

Intro

e|---------------------------------------------------------------------------|
B|---------------------------------------------------------------------------|
G|-5-5-5-5--6--3/------------------------------------------------------------|
D|-3-3-3-3--3--3/-------5-6--5-5-5-5--6--3/----------------------------------|
A|--------------------6------3-3-3-3--3--3/----------------------------------|
E|---------------------------------------------------------------------------|

e|---------------------------------------------------------------------------|
B|---------------------------------------------------------------------------|
G|-3-5-6--5-5-5-5--6-3/------------------------------------------------------|
D|--------3-3-3-3--3-3/-----5-6--5-5-5-5--6-3/-------------------------------|
A|------------------------6------3-3-3-3--3-3/-------------------------------|
E|---------------------------------------------------------------------------|

First Verse

e|---------------------------------------------------------------------------|
B|---------------------------------------------------------------------------|
G|-3-5-6--5-5-5-5--6-3/------------------------------------------------------|
D|--------3-3-3-3--3-3/-----5-6--5-5-5-5--6-3/-------------------------------|
A|------------------------6------3-3-3-3--3-3/-------------------------------|
E|---------------------------------------------------------------------------|x4

Pre chorus

e|---------------------------------------------------------------------------|
B|---------------------------------------------------------------------------|
G|---------------------------------------------------------------------------|
D|-------------5h6--3--------------------------------------------------------|
A|-------------5h6--3--------------------------------------------------------|
E|-------------5h6--3--------------------------------------------------------|

e|---------------------------------------------------------------------------|
B|---------------------------------------------------------------------------|
G|---12-----13------15-------------12------13-----15-------------------------|
D|---x------x-------x--------------x-------x------x--------------------------|
A|---10-----11------13-------------10------11-----13-------------------------|
E|---------------------------------------------------------------------------|

Chorus

e|---------------------------------------------------------------------------|
B|---------------------------------------------------------------------------|
G|---------------------------------------------------------------------------|
D|---------------------------------------------------------------------------|
A|-4-4-4-4-4-4-4-4-4-4-4-4-4-4-3-3-------------------------------------------|
E|---------------------------------6-6-6-6-6-6-6-6-1-1-1-1-1-1-1-1-----------|

e|---------------------------------------------------------------------------|
B|---------------------------------------------------------------------------|
G|---------------------------------------------------------------------------|
D|---------------------------------------------------------------------------|
A|---------------------------------------------------------------------------|
E|-3-3-3-3-3-3-3-3-3-3-3-3-3-3-3-3-6-6-6-6-6-6-6-6-6-6-6-6-6-6-6-6-----------|X2

e|---------------------------------------------------------------------------|
B|-6-6-6-6-6-6-6-6-6-6-6-6-6-6-6-6-9-9-9-9-9-9-9-9-8-8-8-8-8-8-8-8-----------|
G|-x-x-x-x-x-x-x-x-x-x-x-x-x-x-x-x-x-x-x-x-x-x-x-x-x-x-x-x-x-x-x-x-----------|
D|-3-3-3-3-3-3-3-3-3-3-3-3-3-3-3-3-6-6-6-6-6-6-6-6-5-5-5-5-5-5-5-5-----------|
A|---------------------------------------------------------------------------|
E|---------------------------------------------------------------------------|

e|---------------------------------------------------------------------------|
B|-9-9-9-9-9-9-9-9-9-9-9-9-9-9-9-9-13131313131313131313131313131313----------|
G|-x-x-x-x-x-x-x-x-x-x-x-x-x-x-x-x-x-x-x-x-x-x-x-x-x-x-x-x-x-x-x-x-----------|
D|-6-6-6-6-6-6-6-6-6-6-6-6-6-6-6-6-11111111111111111111111111111111----------|
A|---------------------------------------------------------------------------|
E|---------------------------------------------------------------------------|x2

Bridge

e|---------------------------------------------------------------------------|
B|---------------------------------------------------------------------------|
G|-6-6-6-6-x-6------------------5-5-5-5-x-5----------------------------------|
D|-6-6-6-6-x-6-x-1/-x-x-x-x-x-x-5-5-5-5-x-5-x-3------------------------------|
A|-4-4-4-4-x-4-x-1/-x-x-x-x-x-x-3-3-3-3-x-3-x-3------------------------------|
E|-------------x-1/-x-x-x-x-x-x-------------x-3------------------------------|x2

Second Verse

e|---------------------------------------------------------------------------|
B|---------------------------------------------------------------------------|
G|-3-5-6--5-5-5-5--6-3/------------------------------------------------------|
D|--------3-3-3-3--3-3/-----5-6--5-5-5-5--6-3/-------------------------------|
A|------------------------6------3-3-3-3--3-3/-------------------------------|
E|---------------------------------------------------------------------------|x4

Pre chorus

e|---------------------------------------------------------------------------|
B|---------------------------------------------------------------------------|
G|---------------------------------------------------------------------------|
D|-------------5h6--3--------------------------------------------------------|
A|-------------5h6--3--------------------------------------------------------|
E|-------------5h6--3--------------------------------------------------------|

e|---------------------------------------------------------------------------|
B|---------------------------------------------------------------------------|
G|---12-----13------15-------------12------13-----15-------------------------|
D|---x------x-------x--------------x-------x------x--------------------------|
A|---10-----11------13-------------10------11-----13-------------------------|
E|---------------------------------------------------------------------------|

Chorus

e|---------------------------------------------------------------------------|
B|---------------------------------------------------------------------------|
G|---------------------------------------------------------------------------|
D|---------------------------------------------------------------------------|
A|-4-4-4-4-4-4-4-4-4-4-4-4-4-4-3-3-------------------------------------------|
E|---------------------------------6-6-6-6-6-6-6-6-1-1-1-1-1-1-1-1-----------|

e|---------------------------------------------------------------------------|
B|---------------------------------------------------------------------------|
G|---------------------------------------------------------------------------|
D|---------------------------------------------------------------------------|
A|---------------------------------------------------------------------------|
E|-3-3-3-3-3-3-3-3-3-3-3-3-3-3-3-3-6-6-6-6-6-6-6-6-6-6-6-6-6-6-6-6-----------|X2

e|---------------------------------------------------------------------------|
B|-6-6-6-6-6-6-6-6-6-6-6-6-6-6-6-6-9-9-9-9-9-9-9-9-8-8-8-8-8-8-8-8-----------|
G|-x-x-x-x-x-x-x-x-x-x-x-x-x-x-x-x-x-x-x-x-x-x-x-x-x-x-x-x-x-x-x-x-----------|
D|-3-3-3-3-3-3-3-3-3-3-3-3-3-3-3-3-6-6-6-6-6-6-6-6-5-5-5-5-5-5-5-5-----------|
A|---------------------------------------------------------------------------|
E|---------------------------------------------------------------------------|

e|---------------------------------------------------------------------------|
B|-9-9-9-9-9-9-9-9-9-9-9-9-9-9-9-9-13131313131313131313131313131313----------|
G|-x-x-x-x-x-x-x-x-x-x-x-x-x-x-x-x-x-x-x-x-x-x-x-x-x-x-x-x-x-x-x-x-----------|
D|-6-6-6-6-6-6-6-6-6-6-6-6-6-6-6-6-11111111111111111111111111111111----------|
A|---------------------------------------------------------------------------|
E|---------------------------------------------------------------------------|x2

Bridge

e|---------------------------------------------------------------------------|
B|---------------------------------------------------------------------------|
G|-6-6-6-6-x-6------------------5-5-5-5-x-5----------------------------------|
D|-6-6-6-6-x-6-x-1/-x-x-x-x-x-x-5-5-5-5-x-5-x-3------------------------------|
A|-4-4-4-4-x-4-x-1/-x-x-x-x-x-x-3-3-3-3-x-3-x-3------------------------------|
E|-------------x-1/-x-x-x-x-x-x-------------x-3------------------------------|x2

Solo

e|---------------------------------------------------------------------------|
B|---------------------------------------------------------------------------|
G|--1313----1313---12~12----1212----1212----1212--12/1313----1313------------|
D|------1515----15------1313----1313----1313----13-------1515----1515--------|
A|---------------------------------------------------------------------------|
E|---------------------------------------------------------------------------|

e|-------------------------------------------------18/20-16~-----------------|
B|-------------------------------------------16-20---------------------------|
G|--1313----1313---12~12----1212-------17-18---------------------------------|
D|------1515----15------1313----1313-----------------------------------------|
A|---------------------------------------------------------------------------|
E|---------------------------------------------------------------------------|

Play under the solo

e|---------------------------------------------------------------------------|
B|---------------------------------------------------------------------------|
G|-6-6-6-6-x-6------------------5-5-5-5-x-5----------------------------------|
D|-6-6-6-6-x-6-x-1/-x-x-x-x-x-x-5-5-5-5-x-5-x-3------------------------------|
A|-4-4-4-4-x-4-x-1/-x-x-x-x-x-x-3-3-3-3-x-3-x-3------------------------------|
E|-------------x-1/-x-x-x-x-x-x-------------x-3------------------------------|x2

Clean part


e|---------------------------------------------------------------------------|
B|---------------------------------------------------------------------------|
G|-1----1----1----1----1----1----1----1--------------------------------------|
D|---3----3----3----3----3----3----3----3-------3-6-3------------------------|
A|----4----4----4----4----1----1----1----1----3-------3----------------------|
E|------------------------------------------3--------------------------------|
   pmpmpmpmpmpmpmpmpmpmpmpmpmpmpmpm
e|---------------------------------------------------------------------------|
B|---------------------------------------------------------------------------|
G|---------------------------------------------------------------------------|
D|-----------------------------------6-6-6-6-6--6-6-6-6-6--------------------|
A|-3-3-3-3-3-3-3-3-3-3-3-3-3-3-3-3---6-6-6-6-6--6-6-6-6-6--------------------|
E|-3-3-3-3-3-3-3-3-3-3-3-3-3-3-3-3---6-6-6-6-6--6-6-6-6-6--------------------|

Last Chorus Full power chords this time!

e|---------------------------------------------------------------------------|
B|---------------------------------------------------------------------------|
G|-6-6-6-6-6-6-6-6-6-6-6-6-6-6-----------------------------------------------|
D|-6-6-6-6-6-6-6-6-6-6-6-6-6-6-6-6-6-6-6-6-6-6-6-6-1-1-1-1-1-1-1-1-----------|
A|-4-4-4-4-4-4-4-4-4-4-4-4-4-4-3-3-6-6-6-6-6-6-6-6-1-1-1-1-1-1-1-1-----------|
E|---------------------------------6-6-6-6-6-6-6-6-1-1-1-1-1-1-1-1-----------|

e|---------------------------------------------------------------------------|
B|---------------------------------------------------------------------------|
G|---------------------------------------------------------------------------|
D|-3-3-3-3-3---3-3-3-3-3--6-6-6-6-6---6-6-6-6-6------------------------------|
A|-3-3-3-3-3---3-3-3-3-3--6-6-6-6-6---6-6-6-6-6------------------------------|
E|-3-3-3-3-3---3-3-3-3-3--6-6-6-6-6---6-6-6-6-6------------------------------|x2


e|---------------------------------------------------------------------------|
B|-6-6-6-6-6-6-6-6-6-6-6-6-6-6-6-6-9-9-9-9-9-9-9-9-8-8-8-8-8-8-8-8-----------|
G|-x-x-x-x-x-x-x-x-x-x-x-x-x-x-x-x-x-x-x-x-x-x-x-x-x-x-x-x-x-x-x-x-----------|
D|-3-3-3-3-3-3-3-3-3-3-3-3-3-3-3-3-6-6-6-6-6-6-6-6-5-5-5-5-5-5-5-5-----------|
A|---------------------------------------------------------------------------|
E|---------------------------------------------------------------------------|

e|---------------------------------------------------------------------------|
B|-9-9-9-9-9---9-9-9-9-9--1313131313-1313131313------------------------------|
G|-x-x-x-x-x---x-x-x-x-x--x-x-x-x-x--x-x-x-x-x-------------------------------|
D|-6-6-6-6-6---6-6-6-6-6--1111111111-1111111111------------------------------|
A|---------------------------------------------------------------------------|
E|---------------------------------------------------------------------------|

e|---------------------------------------------------------------------------|
B|---------------------------------------------------------------------------|
G|-6-6-6-6-x-6------------------5-5-5-5-x-5----------------------------------|
D|-6-6-6-6-x-6-x-1/-x-x-x-x-x-x-5-5-5-5-x-5-x-3------------------------------|
A|-4-4-4-4-x-4-x-1/-x-x-x-x-x-x-3-3-3-3-x-3-x-3------------------------------|
E|-------------x-1/-x-x-x-x-x-x-------------x-3------------------------------|x2

Outro

e|---------------------------------------------------------------------------|
B|---------------------------------------------------------------------------|
G|--1313----1313---12~12----1212----1212----1212--12/1313----1313------------|
D|------1515----15------1313----1313----1313----13-------1515----1515--------|
A|---------------------------------------------------------------------------|
E|---------------------------------------------------------------------------|

e|-------------------------------------------------18/20-16~-----------------|
B|-------------------------------------------16-20---------------------------|
G|--1313----1313---12~12----1212-------17-18---------------------------------|
D|------1515----15------1313----1313-----------------------------------------|
A|---------------------------------------------------------------------------|
E|---------------------------------------------------------------------------|

Play under the Outro

e|---------------------------------------------------------------------------|
B|---------------------------------------------------------------------------|
G|-6-6-6-6-x-6------------------5-5-5-5-x-5----------------------------------|
D|-6-6-6-6-x-6-x-1/-x-x-x-x-x-x-5-5-5-5-x-5-x-3------------------------------|
A|-4-4-4-4-x-4-x-1/-x-x-x-x-x-x-3-3-3-3-x-3-x-3------------------------------|
E|-------------x-1/-x-x-x-x-x-x-------------x-3------------------------------|x2

************************************

| /   slide up
| \   slide down
| h   hammer-on
| p   pull-off
| ~   vibrato
| +   harmonic
| x   Mute note
| b   Bend
| pb  Pre-bend
| br  Bend release
| pbr Pre-bend release
| brb Bend release bend

************************************
Tap to rate this tab
# A B C D E F G H I J K L M N O P Q R S T U V W X Y Z