Song name
# A B C D E F G H I J K L M N O P Q R S T U V W X Y Z

All Time Low - Oh Calamity tab

Artist: All Time Low
Song: Oh, Calamity!
Album: Don't Panic: It's Longer Now! (2013)

Tabber: Aviv Abramovich
https://www.facebook.com/AvivAbramovich


h - hammer on
p - pull off
/ - slide
v - vibrato

Intro:

E --------------------------------|-----------------------------|
B ---3h4------4p3----------------3|3----------------------------|
G -------5----------3--------3h5--|------3p2-3----3---2---2--3/5|
D -----------------------5--------|-----------------------------| X2
A --------------------------------|-----------------------------|
e --------------------------------|-----------------------------|

Verse (All the verses are the same chords)
Cm                       Eb
When I was younger I was certain
            Gm             F
That I'd be fine without a queen
Cm                     Eb
Just a king inside his castle
        Gm       F
With an ocean in between
    Cm          Eb                Bb                F
Now all I do is sit and count the miles from you to me
    C          Eb     D
Oh, calamity

(The second part of the verse are same except the end)

    C          Eb     F
Oh, calamity

Chorus:
            Eb         Bb      F
It's such a shame that we play strangers
Gm     D  Eb          Bb      F
No act to change what we've become
Gm         D      Eb         Bb                 D            Gm
Damn, it's such a shame that we've built such a wreck out of me
    C
Oh, calamity
    Eb         D
Oh, calamity

Jack's Riff while "Calamity"

E --------------------------------------------|
B 8-8-8-8-10-10-10-10-11-11-11-11-13-13-13-13-|
G --------------------------------------------|
D --------------------------------------------|
A --------------------------------------------|
e --------------------------------------------|

E --------------------------------------------|
B 8-8-8-8-10-10-10-10-11-11-11-11-10-10-10-10-|
G --------------------------------------------|
D --------------------------------------------|
A --------------------------------------------|
e --------------------------------------------|

All the rest of the song is the same

Jack's Solo:

E --------------------------------------------|
B -6h8---8h10h11-p10--8---------10h11---------|
G ---------------------------12---------------| X2
D ------------------------12----------12v-----|
A --------------------------------------------|
e --------------------------------------------|

In the solo at the end of the song (Outro) it ends in the 11 fret on the B string 
instead the 12 in D string, with a long (pretty crapy) vibrato
Tap to rate this tab
# A B C D E F G H I J K L M N O P Q R S T U V W X Y Z